Wake Up Hate (ver2) Bass Tab - Korn






Riff #1:
F------------------|
C------------------|
G------------------|
D---0--0--0--0-111-|
A-23-23--2-23------|

Riff #2:
F---------------------------|
C---------------------------|
G---------------------------|
D-000-0-000--011-000-0-000--|
A----4-----4--------4-----4-|

Riff #3:
F--------------|
C--------------|
G--------------|
D-00-0--00-00--|
A-----44--4--4-|

Riff #4:
F---------------------------|
C---------------------------|
G---------------------------|
D-100-0-100-0-100-011110000-|
A----4-----4-----4----------|

Riff #5:
F-----------------------|
C-----------------------|
G-----------------------|
D-02301-0---02301-10-0--|
A---------4---------4-4-|

Riff #6:
F----------------------|
C----------------------|
G----------------------|
D--0---0---030-0---00--|
A-4-4-4-4-4---4-4-4--4-|

ĂŽnscrie-te la newsletter


Like us on Facebook