When Will This End Bass Tab - Korn






Tuning A,D,G,C,F
When will this end
KoRn

|----------------------|
|----------------------|
|----------------------| Intro
|----------------------|
|--0-1-1--0-0-0-1-1-0--|

|-----------------------|
|-----------------------|
|-----------------------| Solo
|-----------------------|
|-0-1-1--0-0-0-1-1--1-0-|

|--------------------------|
|--------------------------|
|--------------------------| Chorus
|--------------------------|
|--5-x-x-x-x-3-x-x-7-x-x-x-|

|----------------------|
|----------------------|
|----------------------| Bridge
|----------------------|
|--0-1-1--0-0-0-1-1-0--|

ĂŽnscrie-te la newsletter


Join the ranks ! LIKE us on Facebook