Wicked (ver2) Bass Tab - Korn






Intro
F|-(9)-(7)--------------| 
C|----------------------| () play this notes with
G|----------------------| slapin style.
D|----------------------|
A|---------------0000---|

Verse I
F|--------------|
C|--------------|
G|-------9-8-7--| PLay thi many times
D|-6------------|
A|---7-5--------|

F|-----(6/7)--------|
C|-----------(6/7)--|
G|------------------| AFter while play this
D|-6----------------| once.
A|---7--------------|

Last time
F|----------7/9-5/7-|
C|------7/9---------|
G|-7/9--------------|
D|------------------|
A|------------------|

Chorus
F|--------------|
C|--------------|
G|--------------|
D|-0------3-2-1-|
A|---3--2-------|

Post Chorus I
F|------------------------|
C|------------------------|
G|------------------------| / Scratch the string
D|------------------------|    with your nails
A|-XXXX-//-XX-0-XX-//-XXX-|

Verse II
F|-------------|
C|-------------|
G|-------9-8-7-|x3
D|-6-----------|
A|---7-5-------|

F|------------------|
C|------------------|
G|------------------|x1
D|------------------|
A|-3/4/5-5/6/7-3/4/5|

F|-------------|
C|-------------|
G|-------9-8-7-|x1
D|-6-----------|
A|---7-5-------|

F|-------------|
C|---------8-7-|
G|-------9-----|x1
D|-6-----------|
A|---7-5-------|

F|-------------|
C|-------------|
G|-------9-8-7-|x1
D|-6-----------|
A|---7-5-------|

F|------------------|
C|------------------|
G|------------------|x1
D|------------------|
A|-3/4/5-5/6/7-7/6/5|

F|--------------|
C|--------------|
G|-------9-8-7--| PLay thi many times
D|-6------------|
A|---7-5--------|

Post Chorus II
F|-------------------------|
C|-------------------------|
G|-------------------------|
D|-------------------------|
A|-XXX-/-XX-0-XXX-XX-//////|

Verse III
F|------------------------------------------------------------|
C|------------------------------------------------------------|
G|------------------------------------------------------------|
D|------------------------------------------------------------|
A|-1----------------------------------------------------------|

ĂŽnscrie-te la newsletter


Like us on Facebook