Wicked Bass Tab - Korn






Downloaded from WWW.KORNWEB.COM

Wicked - Bass Tab
1 Transcriptions

Transcribed By: James Copley (jcopley18@hotmail.com)

--------------------------------------------------------------

Dropped A
T = Thumbslap

verse
G|------------------------------
D|------------------------------
A|------------------------------
E|--6------7-6-5---6------7-6-5-
A|----8--7-----------8--7------- play that with this variation...

E|--6------7-6--
A|----8--7------

chorus
G|---------------
D|---------------
A|--0-----3-2-1--
E|----3-2--------
A|---------------

post chorus

E|----------------
A|-/-X-XXXXXXXXX-X

outro

E|---6---------------
A|-5---5--4---3--2---





ĂŽnscrie-te la newsletter


Join the ranks ! LIKE us on Facebook