Word Up (ver2) Bass Tab - Korn






Band- Korn
Song- Word Up
Album- Greatest Hits Vol.1
Tuning- Drop D

note1: slap all the song exept "p" for pop


Intro
                                         p p
G----------------------------------------4-2----|
D-----------------------------------------------|
A-----------------------------------------------|
E--2--2---2-00--0--0------------2-2-0-2---------|
B--------------------3--35--5-------------------|

Verse

G-----------------------------------------------|
D-----------------------------------------------|
A-----------------------------------------------|
E--2--2---2-00--0--0------------2-2-0-2-2-------|
B--------------------3--35--5-------------------|

                                            p
G-----------------------------------------------|
D-------------------------------------------4---|
A-----------------------------------------------|
E--2--2---2-00--0--0------------2-2-0-2--22-----|
B--------------------3--35--5-------------------|

G-----------------------------------------------|
D-----------------------------------------------|
A----------2------------------------------------|
E--2--2--22--0-0-005-------------2-2-0-2--------|
B---------------------3--35---5-----------------|

G-----------------------------------------------|
D-----------------------------------------------|
A-----------------------------------------------|
E--2--2---2-00--0--0------------2-2-0-2---0-2---|
B--------------------3--35---5------------------|

Chorus

G-----------------------------------------------|
D-----------------------------------------------|
A-----------------------------------------------|
E--2--2---2----------------2-2-0-2------------|
B------------5-3--3-5--5-----------------------|

Interlude

G-----------------------------------------------|
D-----------------------------------------------|
A-----------------------------------------------|
E--222-2-222-22---------------------------------|
B-----------------------------------------------|

for the second verse, follow the timing with the
pattern F# E D E F#

ENJOY!!!

ĂŽnscrie-te la newsletter


Like us on Facebook