Word Up (ver2) Tab - Korn






Band: Korn
Song: Word Up(Cameo Cover)
Album: Greatest Hits Volume 1
Guitarist: James "Munky" Shaffer and Brian "Head" Welch 

Gt.1                                      x5
PM------------------------------------------|
|-------------------------------------------|
|-------------------------------------------|
|-11-11-9-9-7-7-7-9-7-9-9-7-9-9-9-9---------|
|-11-11-9-9-7-7-7-9-7-9-9-7-9-9-9-9---------|
|-------------------------------------------|
|-------------------------------------------|
On the second time guitar two comes in

Gt.2                                      x4
Pm------------------------------------------|
|-------------------------------------------|
|-------------------------------------------|
|-------------------------------------------| 
|-------------------------------------------|
|-4--4---4--4---4--44---444-44--------------|
|-2--2---2--2---2--22---222-22--------------|

Chorus    Let each one ring              x2
|-------------------------------------------|
|-4~-----4~------2~--4~--2~--4~-------------|
|-4~-----4~------2~--4~--2~--4~-------------| 
|-4~-----4~------2~--4~--2~--4~-------------|
|-2~-----2~------0~--2~--0~--2~-------------|
|-------------------------------------------| 

Gt.1                                      x4
PM------------------------------------------|
|-------------------------------------------|
|-------------------------------------------|
|-11-11-9-9-7-7-7-9-7-9-9-7-9-9-9-9---------|
|-11-11-9-9-7-7-7-9-7-9-9-7-9-9-9-9---------|
|-------------------------------------------|
|-------------------------------------------|

Gt.2                                      x4
Pm------------------------------------------|
|-------------------------------------------|
|-------------------------------------------|
|-------------------------------------------| 
|-------------------------------------------|
|-4--4---4--4---4--44---444-44--------------|
|-2--2---2--2---2--22---222-22--------------|

Chorus                                    x2
|-------------------------------------------|
|-4~-----4~------2~--4~--2~--4~-------------|
|-4~-----4~------2~--4~--2~--4~-------------| 
|-4~-----4~------2~--4~--2~--4~-------------|
|-2~-----2~------0~--2~--0~--2~-------------|
|-------------------------------------------| 

Break Down
|-------------------------------------------|
|-------------------------------------------|
|-------------------------------------------| 
|------------------2-44-22-44---------------|
|-2-44-22-44(x4)--2-44-22-44---(x4)--------|
|-0-22-00-22-------0-22-00-22---------------|

Chorus                                    x4
|-------------------------------------------|
|-4~-----4~------2~--4~--2~--4~-------------|
|-4~-----4~------2~--4~--2~--4~-------------| 
|-4~-----4~------2~--4~--2~--4~-------------|
|-2~-----2~------0~--2~--0~--2~-------------|
|-------------------------------------------| 

Outro 
PM------------------------------------------|     
|-------------------------------------------|
|-------------------------------------------|
|-------------------------------------------|
|-------------------------------------------|
|-44--4-44--4-44--4-44--4-44----------------|
|-22--2-22--2-22--2-22--2-22----------------|

-RicaRdo

ĂŽnscrie-te la newsletter


Join the ranks ! LIKE us on Facebook