Yall Want A Single Bass Tab - Korn






Korn - Y'all Want A Single
Tabbed By Ricky   rammsteinrock2k2@hotmail.com

Intro
G-----------------------------------------
D-----------------------------------------
A-----------------------------------------
E--0-1---00-1--0-1--00-1--0-1--00-1--0-1--
Chorus
G------------------------
D------------------------
A------------------------
E---010000031------------

Verse pt1
G------------------------
D------------------------
A------------------------
E--0-0-0-3-1-------------

Middle Section
G------------------------
D------------------------
A------------------------
E--1--2--3------3-2-1----

verse pt2
G------------------------
D------------------------
A------------------------
E--4-4-4-3-2--3-3-3-2-1--

Interlude
G-------------------------------------------------------------------------
D-------------------------------------------------------------------------
A-------------------------------------------------------------------------
E--0--01--01--01--01~01--01~001--1~01--01~001--1~01--01~001--1~01--01~001-

Chorus Variation
G-------------------------------------
D-------------------------------------
A-------------------------------------
E--100031--100031--0100031------------

Order
Intro
Chorus x8
Verse pt1 x4
Mid Section x1
Verse Pt1 x4
Verse pt2 x1
Verse pt1 x2
Verse pt2 x1
Chorus x8
Mid Section x1
Verse pt1 x4
Verse pt2 x1
Verse pt1 x2
verse pt2 x1
Chorus x8
Mid Section x4
Interlude
Chorus (but slower)
Chorus Variation
Chorus till end

ĂŽnscrie-te la newsletter


Join the ranks ! LIKE us on Facebook