Phobia (ver3) Tab - Kreator






Band:  Kreator
Album: Voices Of Transgression-A 90's Retrospective
Song:  Phobia

Copyright (c)  (GUN) (1999)
Version 1.0 - (13/08/06)

Transcribed By: Steve
Email:          stephen.elvidge1@ntlworld.com


.  - palm mute           /  - slide up to
  - slide down to       ~  - vibrato
h  - hammer on           b  - Bend
p  - pull off            Suffixes for bend
t  - tap                 f  - full bend    h - half bend
ph - pinched harmonic    q  - quarter bend t - tap bend
*  - see comment         ^  - Hold bend    r release bend
x  - Stuccatto           ~  - vibrato bend
,  - slight palm mute    () - ghost note, sustained note
"  - tremolo note         - harmonic
pb - pre bend

Tuning D G C F A D

 Intro

  [-------PM-------] 
|-------------------------|
|-------------------------|
|-------------------------|
|-9-----9-----9-----5--5--|
|-7-7-7-7-7-7-7-7-7-3p03--|
|-------------------------| Rpt 4 X

   [------PM-------] 
|---------------------------|
|---------------------------|
|---------------------------|
|---------------------5--5--|
|-2-------------------3p03--|
|-0-0-0-00-0-0-00-0-0-------|


  [-------PM-------] 
|------------------------------|
|------------------------------|
|------------------------------|
|------------------------5--5--|
|------------------------3p03--|
|-00-0-0-00-0-0-00-0-0-0-------| Rpt

                          [-PM-]
|--------------------------------|
|--------------------------------|
|--------------------------------|
|--------------------------------|
|-4-4-4-4/54-/7-7-7-7-7-754-2-|
|-2-2-2-2/32-/5-5-5-5-5-532-0-|


 Verse


 PM  PM
|------------|
|------------|
|------------|
|---5---5----|
|---3---3-2--|
|-0---0---0--|

   PM   
|----------|
|----------|
|----------|
|-5---5----|
|-3---3-2--|
|---0---0--|


                                   [-PM-]
|----------------------------------------|
|----------------------------------------|
|----------------------------------------|
|---5---5--------------------------------|
|---3---3---4-4-4-4/54-/7-7-7-7-7-754-|
|-0---0---0-2-2-2-2/32-/5-5-5-5-5-532-|

 Rpt Main Riff structure for verse



 Bridge

  [-PM-]                [-PM-]
|-------------------------------------------------|
|-------------------------------------------------|
|-------------------------------------------------|
|-------4---5----(5)----------4--5----------------|
|-------2---3----(3)----------2--3-3----(3)-------|
|-0-0-0---x-------------0-0-0------1----(1)-------| Rpt

 Chorus


|----------------------------------------------------------------|
|----------------------------------------------------------------|
|----------------------------------------------------------------|
|----------------------------------------------------------------|
|-2--(2)--5--(5)--4----(4)----2-4/5--(0)-/7-5-4----(4)----2-4--|
|-0--(0)--3--(3)--2----(2)----0-2/3--(0)-/5-3-2----(2)----0-2--|


 Chorus lead
                                ~~~~~~~~~~
|-0--0--0--0--0--0--0--0-----0---------------|
|-12-12-12-12-12-12-12-12-12-11--------------|
|--------------------------------------------|
|--------------------------------------------|
|--------------------------------------------|
|--------------------------------------------|


                              ~~~~~~~~~~
|-0--0--0--0--0--0--0--0---------------------|
|-12-12-12-12-12-12-12-12-14-----------12p11-|
|--------------------------------------------|
|--------------------------------------------|
|--------------------------------------------|
|--------------------------------------------|


                                ~~~
|-0--0--0--0--0--0--0--0-----0-----0--0--0--0--|
|-12-12-12-12-12-12-12-12-1211----11-11-11-11-|
|----------------------------------------------|
|----------------------------------------------|
|----------------------------------------------|
|----------------------------------------------|


                             
|-0--0--0--0--0--0--0--0---------------------|
|-12-12-12-12-12-12-12-12-14----14-14-14--11-|
|--------------------------------------------|
|--------------------------------------------|
|--------------------------------------------|
|--------------------------------------------|

 Rpt Verse, Bridge and chorus


|-0--0--0--0--0--0--0--0------------------0--0--0--0--0--0--|
|-12-12-12-12-12-12-12-12-14----14-14-14--11-11-11-11-11-11-|
|-----------------------------------------------------------|
|-----------------------------------------------------------|
|-----------------------------------------------------------|
|-----------------------------------------------------------|

 Rpt intro and Main Riff

 Fill
                            [PM]
|-------------------------------|
|-------------------------------|
|-------------------------------|
|--------------2--2-2-2-2-2-----|
|-4-4-4-4/54--0--0-0-0-0-0-----|
|-2-2-2-2/32---------------3p2-|

 Rpt Verse etc

 Rpt Main Riff

 Ending
                            
|---------------------------------|
|---------------------------------|
|---------------------------------|
|--------------2--2-2-2-2-2-------|
|-4-4-4-4/54--0--0-0-0-0-0-----2-|
|-2-2-2-2/32---------------3p2-0-|





END







Like us on Facebook