Violent Revolution Tab - Kreator






Kreator
Violent Revolution
Sam "the Muel" Marwick
Not quite Finished
 but should be good for now. 
  feel free to make corrections

.PM           ~Vibrate    "Tremelo picking
/Slide Up     #AH
Slide Down   +NH

Tuning D

Riff A.1 [0:00]
|------------------------------------------------------|
|------------------------------------------------------|G
|--------7---------------------7-----------------------|t 
|----------10-9~----2-4----------10-9~--7--------2---4-|r 
|-2--/7-----------5-0-2-5--/7-------------10----0-5-2-|1
|-0---------------3-----3--------------------------3---|
|
|
|------------------------------------------------------|
|------------------------------------------------------|G 
|------------------------------------------------------|t
|-------------------2-4--------------------------2---4-|r
|-2-----(2)-------5-0-2-5------(5)-----------52-0-5-2-|2
|-0-----(0)-------3-----3------(3)-----------3






Like us on Facebook