Long Stick Goes Boom Intro Tab - Krokus




e|------------------------------------|
B|------------------------------------|
G|------------------------------------|
D|----0------2-2--0---2-0--2-2-0--2-2-| (a little distortion in here)
A|----0------2-2--2---2-2--2-2-2--2-2-|
E|------------------------------------| x4

e|-------------------------------------------------|-----------------|
B|-----3--------3------------3---------2-----------|-----2-2-2-------|
G|-----2--------0------------2---------2-----------|-----2-2-2-------|
D|-----0--------0------------0---------2-----------|-----2-2-2-------|
A|-----0--------0------------0---------0-----------|-----0-0-0-------|
E|-------------------------------------------------|-----------------| x4

That's it.

ĂŽnscrie-te la newsletter


Join the ranks ! LIKE us on Facebook