Shes Got Everything Intro Tab - Krokus






Artist: Krokus
Song: She's Got Everything
Album: Hardware
Year: 1981


v = Up-picking
x = Dead note
 


|--------------------------------------------------| 
|--------------------------------------------------| 
|--------------------------------------------------| 
|--5-5-5-5-5-5-5-5-5-5-5-5-5-5-5-5-5-5--8-x-10-----| 
|--5-5-5-5-5-5-5-5-5-5-5-5-5-5-5-5-5-5--8-x-10-----| 
|--3-3-3-3-3-3-3-3-3-3-3-3-3-3-3-3-3-3--6-x-8------| 
     v   v   v   v   v   v   v   v   v

|--------------------------------------------------| 
|--------------------------------------------------| 
|--------------------------------------------------| 
|--5-5-5-5-5-5-5-5-5-5-5-5-5-5-5-5-5-5--10-x-8-----| 
|--5-5-5-5-5-5-5-5-5-5-5-5-5-5-5-5-5-5--10-x-8-----| 
|--3-3-3-3-3-3-3-3-3-3-3-3-3-3-3-3-3-3--8--x-6-----|
     v   v   v   v   v   v   v   v   v






Like us on Facebook