Stayed Awake All Night Tab - Krokus






Riff 1
E------------------------------|
B---------------------------3--|
G-----------------------2-x-2--|
D-----------------------2-x-0--|
A-----------------------0------|
E--0-0--0-0--0-0--0-0----------|

Riff 2
E------------------------------|
B-----------------------3------|
G-----------------------2--2---|
D-----------------------0--2---|
A--------------------------0---|
E--0-0--0-0--0-0--0-0----------|






Like us on Facebook