Butterflies - Kumm






Am/F#: 202210
c7   : 032310
G#   : 466544

Intro:
E|-------------------|------------------|
B|----5--5--5p3---3--|-3h5--5--5p3---3--|
G|-------------5----5|------------5----5|
D|-------------------|------------------|
A|-------------------|------------------|
E|-------------------|------------------|

    |--------------------|----------------|
    |--3--3----3h5---5p3-|--3--3---3---3--|
    |-------5-----5-----5|-------5---5---5|  
    |--------------------|----------------|
    |--------------------|----------------|
    |--------------------|----------------|

E|-------------------|------------------|
B|(3)h5--5--5p3---3--|-3h5--5--5p3---3--|
G|-------------5----5|------------5----5|
D|-------------------|------------------|
A|-------------------|------------------|
E|-------------------|------------------|

    |--------------------|-----------5----|
    |--3--3----3h5---5p3-|--3--3---3---3--|
    |-------5-----5-----5|-------5-------5|
    |--------------------|----------------|
    |--------------------|----------------|
    |--------------------|----------------|

//prima strofa, cu intro pe fundal
        
welcome to the silence I give   I give      
someone has to guide us to the river to the river

Am    Am/F#   C7no5
Aaa..
            E|-------------------|
            B|-------4------3----|
            G|-0h1-3----1-3------|
            D|-------------------|
            A|-------------------|
            E|-------------------|

Am               Am/F#         C7no5    G#
tried hard to disgrace me and fall and fall
Am               Am/F#              C7no5         G#
run out of the safe place when you call when you call

Am    Am/F#   C7no5
Aaa..
            E|-------------------|
            B|-------4------3----|
            G|-0h1-3----1-3------|
            D|-------------------|
            A|-------------------|
            E|-------------------|

                Am             Am/F#
butterflies are coming    are coming
                  C7no5
butterflies are coming
      G#
to change our ways

//solo cu 3 note.pe bune.
//ultima strofa cu intro pe fundal

the signs are all shifting, unclear unclear
can't tell what I see from what I hear.

ĂŽnscrie-te la newsletter


Like us on Facebook