Amber Girl Bass Tab - Lacrimas Profundere






Amber Girl

Lacrimas Profundere
from Ave End

Intro/ Chorus

G|------------------------------------------------|
D|------------------------------------------------|
A|------------------------5-5-5-5-5-5-------------|
E|5-5-5-5-5-5-1-1-1-1-1-1-------------3-3-3-3-3-3-|





Verse

G|--------------------------------------------------------------------------------
D|--------------------------------------------------------------------------------
A|--------------------------------------------------------------------------------
E|-5-5-5-5-5-5-5-5-5-5-5-5-5-5-5-5-1-1-1-1-1-1-1-1-5-5-5-5-5-5-5-5-5-5-5-5-5-5-5-5

continue..
G-----------------------------|
D-----------------------------|
A-----------------5-5-5-5-5-5-|
E-1-1-1-1-1-1-1-1-------------|

(Kind of solo)Bridge


G-----------------------------|           
D-----------------------------| X 16
A-----------------------------| 
E-5-5-5-5-5-5-5-5-5-5-5-5-5-5-|

then..

G|------------------------------------------------|
D|------------------------------------------------|
A|------------------------5-5-5-5-5-5-------------| X 2
E|5-5-5-5-5-5-1-1-1-1-1-1-------------3-3-3-3-3-3-|


Any comments:   galeano866@hotmail






Like us on Facebook