Entwined Bass Tab - Lacuna Coil






Band- Lacuna Coil
Song- Entwined

Intro:
|--------------------------|
|--------------------------|
|--------------------------| Don't sure, if this is played by bass...
|-0--5--3-----0--5--3--2---|
|----------3-------------3-|

Verse:
|------------------------|
|------------------------|
|----------------------5-| 2x
|-0--5--3--2--0--5--3----|
|------------------------|

Chorus:
|------------------------|
|------------------------|
|-7--------------------5-| 2x
|----5--3-----0--5--3----|
|----------3-------------|

Verse 2x

Chorus 4x

Interlude:
|------------------------------------------------------|
|------------------------------------------------------|
|------------------------------------------------------|
|-0000-0000-000-0000-0000-000-0000-0000-000-0000-0000--|
|------------------------------------------------------|

Chorus 4x

End:
|--------------|
|--------------|
|--------------|
|-0-(let ring)-|
|--------------|



ĂŽnscrie-te la newsletter


Join the ranks ! LIKE us on Facebook