Fragile Solo Tab - Lacuna Coil






----------------------------------------------------------------------------
            Fragile (Guitar fill) - Lacuna Coil
----------------------------------------------------------------------------
Tabbed by: Franco
Email: sk8rat76@sbcglobal.net

Tuning: Standard

e|--------------------------------------------------------------------------|
B|--------------------------------------------------------------------------|
G|-----14-16-17-16-14-16-17-16-14-16-14-(Slight vibrato on last note)-------|
D|--------------------------------------------------------------------------|
A|--------------------------------------------------------------------------|
E|--------------------------------------------------------------------------|

e|--------------------------------------------------------------------------|
B|-----------------------------------17-(Slight vibrato on last note)-------|
G|-----14-16-17-16-14-16-17-16-14-16----------------------------------------|
D|--------------------------------------------------------------------------|
A|--------------------------------------------------------------------------|
E|--------------------------------------------------------------------------|

e|--------------------------------------------------------------------------|
B|--------------------------------------------------------------------------|
G|-----16br16---------------------------------------------------------------|
D|------------17br17--------------------------------------------------------|
A|-------------------17br17-14-15v-14v--------------------------------------|
E|--------------------------------------------------------------------------|

Thats it, feel free to comment. Thank you.

ĂŽnscrie-te la newsletter


Join the ranks ! LIKE us on Facebook