Lady Rosenred Bass Tab - Lake Of Tears




Band:Lake Of Tears
Song:Lady Rosenred
Album:A Crimson Cosmos
Tabbed by:Graveland Pagan

This song is great to kick back to and sounds awesome.It kicks a*s.Should be 100% correct:

G--------------------------------------------|
D----------------------4-4-4h6---------------|  Verse
A--6-6--4-4--4-4--6-6----------4-4--6-6--6-6-|
E--------------------------------------------|

G--------------------------------------------|
D-12-12-12-12-10-----------------------------|  Chorus
A----------------12-10-4-4-4h6-4-4--6-6--6-6-|
E--------------------------------------------|

Havent had the time to do the structure but it is easy to keep timing and there are only 
riffs in the song.

ĂŽnscrie-te la newsletter


Join the ranks ! LIKE us on Facebook