Ankomst Tab - Leaves Eyes






|--------------------------|-------------------------|
|--------------------------|-------------------------|
|------9---9-------9---9---|-----7---7-------7---7---|
|----9---9---9---9---9---9-|---7---7---7---7---7---7-|
|--7-----------7-----------|-5-----------5-----------|
|--------------------------|-------------------------|
|--------------------------|-------------------------|
|--------------------------|-------------------------|
|-----5---5-------4---4----|-----2-----2-----2-----2-|
|---5---5---5---4---4---4--|---2-----2-----2-----2---|
|-3-----------2------------|-0-----0-----0-----0-----|
|--------------------------|-------------------------|
that's it!
just repeat this whole riff for the whole song






Like us on Facebook