For Amelie Chords - Leaves Eyes






For Amelie - Leaves Eyes - Lovelorn (2004)
Am  Em  G   Dm  F   C   Bb
e|---0---0---3---1---1---0-------|
b|---1---0---0---3---1---1-------|
g|---2---0---0---2---2---0---3---|
d|---2---2---0---0---3---2---3---|
a|---0---2---2-----------3---1---|
E|-------0---3-------------------|
Am            Em
Why don't you feel me
G                 Am    G
Why can't I hold your hand
Am                        Em
You never said that you'd leave me
G            Am         G
And I know you are somewhere
Dm         C
I held you up
G
Every time you were down
Dm          C
Your crying stopped
G
When I was around but
Am            Em
Why don't you love me?
G                   Am   G
Enough to stay with me
Am          Em
Now tell me truly
G                   Am    G
Was it there in your heart too?
Am           Em
All that I'm left with
G               Am   G
Is a dream of me and you
Dm         C
I held you up
G
Every time you were down
Dm          C
Your crying stopped
G
When I was around but
Bb            F
You filled my soul
Am              G
With your beauty and with hope
Bb              F
We're different although
Am                 G
We were just like water in sand
e|----------------------------------------8--6--8~--8---------------------------------------------------|
b|---------------------------10b--10--8~-----------------------------------------10~--8~--8/10~--10///--|
g|--------------9--7--5~--0--------------------------------9------9-------------------------------------|
d|-----8~--10~-----------------------------------------10-----10-----10--10--10-------------------------|
a|--2---------------------------------------------------------------------------------------------------|
E|--3---------------------------------------------------------------------------------------------------|
Pm  .
Am            Em
Why dont you feel me
G                Am    G
Why cant I hold your hand
Am                        Em
You never said that you'd leave me
G            Am         G 
And I know you are somewhere
Dm         C
I held you up
G
Every time you were down
Dm          C
Your crying stopped
G
When I was around but
Dm         C
I held you close
G
When you fell to the ground
Dm                         C
And now you've torn all my hopes apart
G               Dm
You could have said goodbye






Like us on Facebook