Norwegian Lovesong Tab - Leaves Eyes






Artist: Leaves Eyes
Song:   Norwegian Lovesong
Album:  Lovelorn
Tabbed by:    Angelo               manica_angelo@yahoo.com
Tuning E
Tuning: E-A-D-G-B-e
00:00
Intro:(Clean)
|-----------------------------------------|
|-----3-3-----3-3-----3-----3-----3-----3-|
|---2-------2-------2-----2-----2-----2---|
|-0-------2-------3-----3-----3-----3-----|
|-----------------------------------------|
|-----------------------------------------|
|-----------------------------------------|
|-----3-3-----3-3-----3-----3-----3-----3-|
|---2-------2-------2-----2-----2-----2---|
|-0---------------0-----0-----0-----0-----|
|---------3-------------------------------|
|-----------------------------------------|
00:26
|---------------------|
|---------------------|
|-7--9--10----7--5--7-|
|-7--9--10----7--5--7-|
|-5--7---8----5--3--5-|
|---------------------|
00:36(Distortion)
|---------------------------------------------|
|---------------------------------------------|
|---------------------------------------------|
|-7-7-77-9-9-99-10----10-10-10-10-10-10-10-10-|
|-5-5-55-7-7-77--8-----8--8--8--8--8--8--8--8-|
|---------------------------------------------|
|------------------------------------|
|------------------------------------|
|------------------------------------|
|-7-7-77-5-5-55-7----7-7-7-7-7-7-7-7-|
|-5-5-55-3-3-33-5----5-5-5-5-5-5-5-5-|
|------------------------------------|
00:53
Verse1:(Clean)
|---------------------|
|---------------------|
|-7--9--10----7--5--7-|
|-7--9--10----7--5--7-|
|-5--7---8----5--3--5-|
|---------------------|
01:11
Chorus:(Distortion)
|---------------------------------------------|
|---------------------------------------------|
|---------------------------------------------|
|-7-7-77-9-9-99-10----10-10-10-10-10-10-10-10-|
|-5-5-55-7-7-77--8-----8--8--8--8--8--8--8--8-|
|---------------------------------------------|
|------------------------------------|
|------------------------------------|
|------------------------------------|
|-7-7-77-5-5-55-7----7-7-7-7-7-7-7-7-|
|-5-5-55-3-3-33-5----5-5-5-5-5-5-5-5-|
|------------------------------------|
01:49
Verse2:(Clean)
|---------------------|
|---------------------|
|-7--9--10----7--5--7-|
|-7--9--10----7--5--7-|
|-5--7---8----5--3--5-|
|---------------------|
02:06
Chorus:(Distortion)
|---------------------------------------------|
|---------------------------------------------|
|---------------------------------------------|
|-7-7-77-9-9-99-10----10-10-10-10-10-10-10-10-|
|-5-5-55-7-7-77--8-----8--8--8--8--8--8--8--8-|
|---------------------------------------------|
|------------------------------------|
|------------------------------------|
|------------------------------------|
|-7-7-77-5-5-55-7----7-7-7-7-7-7-7-7-|
|-5-5-55-3-3-33-5----5-5-5-5-5-5-5-5-|
|------------------------------------|
02:44(Clean)
|------------------------------------------------------------|
|------------------------------------------------------------|
|-7-7--9-9--10--10--10-10--10-10----7-7--5-5--7--7--7-7--7-7-|
|-7-7--9-9--10--10--10-10--10-10----7-7--5-5--7--7--7-7--7-7-|
|-5-5--7-7---8---8---8--8---8--8----5-5--3-3--5--5--5-5--5-5-|
|------------------------------------------------------------|
03:02
Chorus:(Distortion)
|---------------------------------------------|
|---------------------------------------------|
|---------------------------------------------|
|-7-7-77-9-9-99-10----10-10-10-10-10-10-10-10-|
|-5-5-55-7-7-77--8-----8--8--8--8--8--8--8--8-|
|---------------------------------------------|
|------------------------------------|
|------------------------------------|
|------------------------------------|
|-7-7-77-5-5-55-7----7-7-7-7-7-7-7-7-|
|-5-5-55-3-3-33-5----5-5-5-5-5-5-5-5-|
|------------------------------------|
for questions, comments and suggestions, please contact me
any of these are welcome :) enjoy!






Like us on Facebook