The Ocean (ver2) Bass Tab - Led Zeppelin






Led Zeppelin The Ocean (Live)
How the West Was Won
2003 3-Disc Compilation

Riff 1          Play during solo also
|-------------------------------------------------|
|------------------------9--------------9---------|
|-9-9-9-7---------9--7-9--------7-9-7-9-----------|
|---------9---7-9---------------------------------|

Riff 2         *Play only when the guitar does
|-------------------------------------------------|
|-------------------------------------------------|
|-9-9-9-9---7-7-7-7---9-7-----10-10-10-10---*12^--|
|-------------------------9-----------------------|

Riff 3          Play this riff with the humming
|-------------------------------------------------|
|-9-7-----------------------7-10------------------|
|-----7-7-9-------------7-9-----------------------|
|-----------7-9----7-9----------------------------|

Riff 4
|-------------------------------------------------|
|-------------------------------------------------|
|-9-9-9-9-9-9-9-7/10-10-10-10---------------------|
|-------------------------------------------------|

                Play Riff 4 a few times then this
|-------------------------------------------------|
|-----9-7-------------------9-7-------------------|
|-9-7-----9-7-9-7-------9-7-----9-7-9-7-----------|
|-------------------------------------------------|

ĂŽnscrie-te la newsletter


Like us on Facebook