The Ocean (ver4) Bass Tab - Led Zeppelin






The Ocean
Led Zeppelin

intro:
G|-0h2-0h2-0-----------0-----2---2-----------------|
D|-----------2-----0h2---0h2-------0-2-------------|
A|-------------3---------------4-------------------|
E|-------------------------------------------------|

G|-0h2-0h2-0-----------0-----2---2-----------------|
D|-----------2-----0h2---0h2-------0-2-------------|
A|-------------3---------------4-------------------|
E|-------------------------------------------------|

G|-------------------------------------------------|
D|-------------------------------------------------|
A|-5555-3333------3/5555---------------------------|
E|-----------5-3-5---------------------------------|

G|-------------------------------------------------|
D|-------------------------------------------------|
A|-5555-3333------3/5555---------------------------|
E|-----------5-3-5---------------------------------|

G|-------------------------------------------------|
D|-------------------------------------------------|
A|-5555-3333------3/5555---------------------------|
E|-----------5-3-5---------------------------------|

G|-------------------------------------------------|
D|-------------------------------------------------|
A|-5555-3333------3/5555---------------------------|
E|-----------5-3-5---------------------------------|

Led Zeppelin Is #1 Band

ĂŽnscrie-te la newsletter


Like us on Facebook