Whole Lotta Love Tab - Led Zeppelin






Whole Lotta Love
Led Zeppeling

Notation: s=sixteenth note, e=eighth note

Intro/Verses:

   s e  s e  s s s s s s s s s    s s s s s s s s s s s s s s s s
E|------------------------------|----------------------------------|
B|------------------------------|----------------------------------|
G|------------------------------|----------------------------------|
D|---0----0--2-------2-------2--|-------2-------2-------2-------2--|
A|-2----2-----------------------|----------------------------------|
E|-------------0-0-0---0-0-0----|-0-0-0---0-0-0---0-0-0---0-0-0----|

For the intro, play the whole figure straight through twice.  For the verses,
just play the first half.

The low E's are sort of optional -- if it's tough, just play the high E's
by themselves, or kindly ask a bass player to play them.

Chorus: "Wanna Whole Lotta Love?"

   s s s s s e (slide)
E|-------------------|
B|-------------------|
G|-------------------|
D|-0-0-0-0-0----9---| play 4 times
A|-----------7-------|
E|-------------------|



-----------------------------------------------------------------------------
Whole Lotta Love (Led Zeppelin)

Main Riff:

e ---------------------------------------------------------------------------|
B ---------------------------------------------------------------------------|
G -----------------9--------9--------9---------------------------------------|
D -----------------9--------9--------9---------------------------------------|
A --------5----5---7--------7--------7---------------------------------------|
E --(5)>7----7-------0-0-0----0-0-0------------------------------------------|


Solo:

e -------------12--------------------------------------|
B ----10/12-------15--12-------------------------------|
G ------------------------15p14p12--14p12--14>(16)-----|
D -----------------------------------------------------|
A -----------------------------------------------------|
E -----------------------------------------------------|

         /-3-- /-3--
e -------------------------------------------------|
B -------------------------------------------------|
G -2/4---4p2--0--2p0-0--2p0------------------------|
D ---------------------------2p0--2p0--------------|
A -------------------------------------2-----------|
E ---------------------------------------------0---|


e ----------12-10>(12)--12--15--10>(12)-|-12 15>(19)>15--12----15p12-|
B -10>(12)--12--------------------------|-------------------14-------|
G --------------------------------------|----------------------------|
D --------------------------------------|----------------------------|
A --------------------------------------|----------------------------|
E --------------------------------------|----------------------------|

  /------3------     /---3---
e ----19>(21)-19---18-17--15-----15-----|---------------------------17-19----|
B -17------------------------17-----17--|---17-19-19>(21)--19>(21)--------17-|
G --------------------------------------|------------------------------------|
D --------------------------------------|------------------------------------|
A --------------------------------------|------------------------------------|
E --------------------------------------|------------------------------------|



--
 
E--------------|--------------
B--------------|--------------
G--------------|--------------
D----0---0-----|--------------       and repeate.
A----5~--5~-7--|-7-7-7---7-7-7
E--7---7----0--| 0-0-0---0-0-0
 
 

ĂŽnscrie-te la newsletter


Like us on Facebook