Sound Of Melodies Tab - Leeland






-------------------------------------------------------------------------------
     Sound of Melodies - Leeland
-------------------------------------------------------------------------------
Tabbed by: Martin Willcox
Email: krayzie010@gmail.com

Leeland's official website: http://www.leelandonline.com/

Tuning:EADGBe


Intro:

    D                                      A
e|---------------------------------------------------------------------------------|
B|--15----15-14----14-15----15----15-------15----15-14----14-------14-------14-----|
G|-----14-------14-------14----14----14-------14-------14----14h16----16-14----14--|
D|---------------------------------------------------------------------------------|
A|---------------------------------------------------------------------------------|
E|---------------------------------------------------------------------------------|

    D/F#                                   A                 Bm              D
e|------------------------------------------------------------------------------|
B|--17----17----17----15----15-14----14----19----19----19----17----17-15----15--|
G|-----14----14----14----14-------14----------14----14----14----14-------14-----|
D|------------------------------------------------------------------------------|
A|------------------------------------------------------------------------------|
E|------------------------------------------------------------------------------|


Verse Intro:

e|---------------------------|
B|---------------------------|
G|------2-----2-----2-----2--|
D|----4-----4-----4-----4----|
A|--5-----5-----5-----5------|
E|---------------------------|


Verse: Repeat as required
                            
e|---------------------------------------------------|
b|---------------------------------------------------|
G|------2-----2-----2-----2-----2-----2-----2-----2--|
D|----4-----4-----4-----4-----4-----4-----4-----4----|
A|--2-----2-----5-----5-----5-----5-----5-----5------|
E|---------------------------------------------------|
                            FIG

Play this at note FIG on second to last Verse riff and repeat until chorus
e|--------------------------------------|
B|----7--------7--------5--------3------|
G|--7---7-6--7---7-6--6---6-4--4---4-2--|
D|--------------------------------------|
A|--------------------------------------|
E|--------------------------------------|


Chorus:

    D                                      A
e|---------------------------------------------------------------------------------|
B|--15----15-14----14-15----15----15-------15----15-14----14-------14-------14-----|
G|-----14-------14-------14----14----14-------14-------14----14h16----16-14----14--|
D|---------------------------------------------------------------------------------|
A|---------------------------------------------------------------------------------|
E|---------------------------------------------------------------------------------|

    D/F#                                   A                 Bm              
e|------------------------------------------------------------------------------|
B|--17----17----17----15----15-14----14----19----19----19----17----17-15----15--|
G|-----14----14----14----14-------14----------14----14----14----14-------14-----|
D|------------------------------------------------------------------------------|
A|------------------------------------------------------------------------------|
E|------------------------------------------------------------------------------|


Bridge

D - A - G

ĂŽnscrie-te la newsletter


Like us on Facebook