Dig In (ver2) Bass Tab - Lenny Kravitz






Song: Dig in 
Artist: Lenny Kravitz
Album: Lenny
Tabbed by Marcos Prieto (marcrow_ps@yahoo.es)

Notation legend:

 +.-.+.-. = is the drum's rhythm. '+' represent the drum bass; '-' is the snare.
r = rest.
         = slide up.

Intro (only drums, 4 bars)

Chorus (x2):
   A                B                D                D
   + . - . + + - .  + . - . + + - .  + . - . + + - .  + . - . + + - .  
G||----------------|----------------|----------------|----------------||
D|.----------------|----------------|----------------|----------------.|
A|.0--00---0-0-----|2--22---2-2-----|5--55---5-5-----|5--55-r-5-5-----.|
E||----------------|----------------|----------------|----------------||

Verse 1:
   F#        B      F#        E            F#        B      F#
   + . - . + + - .  + . - . + + - .        + . - . + + - .  + . - . + + - .  
G||----------------|----------------||   |----------------|----------------|
D|.----------------|----------------.|   |----------------|----------------|
A|.----------2-----|----------------.|   |----------2-----|----------------|
E||2---2---r-------|2---2---r-0-----||x3 |2---2---r-------|2---2---r-2-2-1-|

Prechorus:
  D                A                D                A               
  + . - . + + - .  + . - . + + - .  + . - . + + - .  + . - . + + - .  
G|----------------|----------------|----------------|----------------|
D|----------------|------------4---|----------------|------------4---|
A|5-5-5-5-5-5-5-5-|------4-5-7---7-|5-5-5-5-5-5-5-5-|------4-5-7---7-|
E|----------------|5---5-----------|----------------|5---5-----------|

  D                D#               E               
  + . - . + + - .  + . - . + + - .  + . - . + + - .  + . - . + + - .
G|----------------|----------------|----------------|----------------|
D|----------------|----------------|----------------|----------------|
A|5-5-5-5-5-5-5-5-|6-6-6-6-6-6-6-6-|7-7-7-7-7-7-7-7-|7\






Like us on Facebook