Fields Of Joy Tab - Lenny Kravitz






#----------------------------------PLEASE NOTE---------------------------------#
#This file is the author's own work and represents their interpretation of the #
#song. You may only use this file for private study, scholarship, or research. #
#------------------------------------------------------------------------------##
Date: Sun, 10 Sep 1995 11:11:28 GMT
From: Roger Spencer 
Subject: TAB:  By 

Fields of Joy

By Lenny Kravitz

Trans Matt Spencer

Taken from the ablum  " Mamma Said"





Intro


e-----------------------|------------------------------|-
b-----------------------|------------------------------|-
g-----------------------|------------------------------|-
d-----------------------|------------------------------|-
a-------9---------9-----|-----9---7----7--6--6---------|-
e--7--------5---------4-|---------3----3--3--3---------|-  Repeat


This is the riff that appears half way through

You have to listen for the changes in time - rhythm varies on each
repeat, but overall very easy riff to play
e----------------------------------|---------------------------|-
b----------------------------------|---------------------------|-
g----------------------7--7--x-x-x-|-9--9--x-x-x---------------|-
d--9---9---x--x--x--x--7--7--x-x-x-|-9--9--x-x-x--5--x--5-x--7-|-
a--9---9---x--x--x--x--5--5--x-x-x-|-7--7--x-x-x--5--x--5-x--7-|-
e--7---7---x--x--x--x--------------|--------------3--x--3-x--5-|-

Let's wander slowly through the fields 
Slowly, slowly through the fields
I touch the leaves that touch the sky
Just you and I, through the fields of joy

All trouble slowly fades away
Slowly slowly fades away
I hold your hand inside my hand
Across the land - through fields of joy
The sound of music that we hear
The blend of colours in the air
All cities, mountains disappear from view
All truth and beauty near to me and you
With you through the fields
With you through the fields
With you through the fields
The fields of Joy

Let's wander slowly through the fields 
Slowly, slowly through the fields
I know our love will never die
Just you and I
Through fields of Joy
Through fields of Joy

From: gesellen@namu01.gwdg.de
Subject: SUBSCRIPTION/REVIEW/FEEDBACK
Date: Tue, 04 Jul 95 17:12:23 +0200

Lenny Kravitz - Fields of Joy
       (according to Ralf ,
        SOLO by Andreas )

Thanx to Andreas   whose frame I am using
- unfortunately my transcription of the TABs and chords is different, so
this is my version of how I perceive the really excellent song. (Ralf):

Special chords for the middle part:
          EAdgbe
B(VII)    799877     you should stress the bass strings (E-d)
D/A       557775   |  and preferably omit the discant ones
E/G#      476454   |  which allows you to cope with the fingering
G(III)    355433   /  slightly easier, too

All words following are originally from Andreas - I only changed 
the chords and TABS (except SOLO):

"This is a favorite of mine. Maybe the solo isn't perfect, please mail
me if you find anything you think is wrong.

Repeat through verses 1, 2 and 4:

e|------------------------
B|------------------------
G|------------------------
D|----4----4----4-2--2-2-1
A|-2----0-----------------
E|-----------4----3--3-3-3
   B    D    E    G       






Like us on Facebook