Fly Away Bass Tab - Lenny Kravitz






fly away - lenny kravitz
tabbed by leigh

guitar intro

chorus

g ---------------------------------------
d ---------------------------------------
a ------------------------------5-5-5-5-5
e 5-5-5-5-7-8-8-8-8-8-3-3-3-3-3-------

verse

g ------------------------------------p7
d -----p7--------p9---------p5----------
a -------------------------------3/5----
e 3/5------5/8--------0h3---------------
   s             s                s              s


s - slap
p - pluck

one_dolla_bill@yahoo.com






Like us on Facebook