If I Could Fall In Love Solo Tab - Lenny Kravitz






This is my first TAB.
I hope I didn't make any mistake.
It's not so difficult to play, but sounds great.


E--15-12-15-12-15-12-10-8-------10-8-12-15-12-12-10-8------
H-------------------------10--------------------------10---
G----------------------------------------------------------
D----------------------------------------------------------
A----------------------------------------------------------
E----------------------------------------------------------


E--20-20-20-17-15-12-13-12-----5-7-8-10-12-15-17-----------
H------------------------------------------------(10)------
G----------------------------------------------------------
D----------------------------------------------------------
A----------------------------------------------------------
E----------------------------------------------------------






Like us on Facebook