Stillness Of Heart Bass Tab - Lenny Kravitz






Song: Stillness of heart
Artist: Lenny Kravitz
Album: Lenny (2001)

Tabbed by Marcos Prieto (marcrow_ps@yahoo.es)

 Notation legend:

 +.-.+.-. = is the drum's rhythm. '+' represent the drum bass; '-' is the snare.
        / = slide down.
        r = rest.
~ = let ring.
        " = notes higher than 9 (10, 11, 12...). 12 is 12, not 1 and 2.
                                                 " 

                   Intro:
                   C/G    C/G     C/G      C/G
   + . - . + + - .  + . - . + + - .  + . - . + + - .  + . - . + + - .
G|----------------|----------------|----------------|----------------|----------------|
D|----------------|----------------|----------------|----------------|----------------|
A|----------------|----------------|----------------|----------------|----------------|
E|--------------1/|3-3-r-3--r3---1/|3-3-r-3--r3---1/|3-3-r-3--r3---1/|3-3-r-3--r3---1/|

Verse:
  C/G   C/G    C/G             C/G
  + . - . + + - .  + . - . + + - .  + . - . + + - .  + . - . + + - .
G|----------------|----------------|----------------|----------------|
D|----------------|----------------|----------------|----------------|
A|----------------|----------------|----------------|----------------|
E|3-3-r-3--r3---1/|3-3-r-3--r3---1/|3-3-r-3--r3---1/|3-3-r-3--r3--3-/|

  F    Eb
  +  .  -  .  +  +  -  .   +  .  -  .  +  +  -  .   +  .  -  .  +  +  -  .   +  .  -  .  +  +  -  .   
G|------------------------|------------------------|------------------------|------------------------|
D|------------------------|------------------------|------------------------|------------------------|
A|------------------------|------------------------|------------------------|------------------------|
E|13-13-r--13---r13----13-|13-13-r--13---r13----13-|11-11-r--11--r11-----11-|11-11-r--11--r11-----11-|
  "  "     "     "     "   "  "     "     "     "   "  "     "    "      "   "  "     "    "      "
Chorus 1:
  Bb   F    C     Eb
  + . - . + + - .  + . - . + + - .  + . - . + + - .  + . - . + + - . 
G|----------------|----------------|----------------|----------------|
D|----------------|----------------|----------------|----------------|
A|----------------|8-8-8-8-8-8-8-8-|----------------|6-6-6-6-6-6-6-6-|
E|6-6-6-6-6-6-6-6-|----------------|8-8-8-8-8-8-8-8-|----------------|

  Bb   F    C     Eb
  + . - . + + - .  + . - . + + - .  + . - . + + - .  + 
G|----------------|----------------|----------------|----------------|
D|----------------|----------------|----------------|----------------|
A|----------------|8-8-8-8-8-8-8-8-|----------------|6~--------------|
E|6-6-6-6-6-6-6-6-|----------------|8-8-8-8-8-8-8-8-|--------------1/|

Intro (2 bars).

Verse.

Chorus 2:
   Bb    F     C      Eb
   + . - . + + - .  + . - . + + - .  + . - . + + - .  + . - . + + - . 
G||----------------|----------------|----------------|----------------||
D|.----------------|----------------|----------------|----------------.|
A|.----------------|8-8-8-8-8-8-8-8-|----------------|6-6-6-6-6-6-6-6-.|
E||6-6-6-6-6-6-6-6-|----------------|8-8-8-8-8-8-8-8-|----------------||x3

  Bb   F    C     Eb
  + . - . + + - .  + . - . + + - .  + . - . + + - .  + . - . + + - . 
G|----------------|----------------|----------------|----------------|
D|----------------|----------------|----------------|----------------|
A|----------------|8-8-8-8-8-8-8-8-|----------------|6-6-6-6-6-6-6-54|
E|6-6-6-6-6-6-6-6-|----------------|8-8-8-8-8-8-8-8-|----------------|

  C   Eb    C     Eb
  + . - . + + - .  + . - . + + - .  + . - . + + - .  + . - . + + - . 
G|----------------|----------------|----------------|----------------|
D|----------------|----------------|----------------|----------------|
A|3-3-3-3-3-3-3-5-|6-6-6-6-6-6-6-54|3-3-3-3-3-3-3-5-|6-6-6-6-6-6-6-6-|
E|----------------|----------------|----------------|----------------|
 
  F                
  + . - . + + - .  + . - . + + - .   
G|----------------|----------------|
D|3-3-3-3-3-3-3-3-|3-3-3-3---------|
A|----------------|----------------|
E|----------------|--------1-1-2-2-|

Solo:
  C/G   C/G    C/G             C/G
  + . - . + + - .  + . - . + + - .  + . - . + + - .  + . - . + + - .
G|----------------|----------------|----------------|----------------|
D|----------------|----------------|----------------|----------------|
A|----------------|----------------|----------------|----------------|
E|3-3-r-3--r3---1/|3-3-r-3--r3---1/|3-3-r-3--r3---1/|3-3-r-3--r3-5-5-|

Chorus 3 (fade out):
   Bb    F     C      Eb
   + . - . + + - .  + . - . + + - .  + . - . + + - .  + . - . + + - . 
G||----------------|----------------|----------------|----------------||
D|.----------------|----------------|----------------|----------------.|
A|.----------------|8-8-8-8-8-8-8-8-|----------------|6-6-6-6-6-6-6-6-.|
E||6-6-6-6-6-6-6-6-|----------------|8-8-8-8-8-8-8-8-|----------------||







Like us on Facebook