Stillness Of Heart Solo (ver2) Tab - Lenny Kravitz






e-----6--------------------------------------------------------------------|
H--6b8---6s8-6-------------------------------------------------------------|
G--------------7-6-5---5b6r5-----------------------------------------------|
D--------------------8-------8-5---5~~~/-----------15----17b19-17-15-------|
A--------------------------------8-----------15h17----17-------------16~~-|
E--------------------------------------------------------------------------|

e--------------------------------------------------------------------------|
H--18---18-18-----18-------------------------------------------------------|
G--17b19---17b19--17b19r17p15-----------------15--15b17r15--17b19r17p15----|
D---------------------------h17-15~~----15h17--17--------17----------17---|
A--------------------------------------------------------------------------|
E--------------------------------------------------------------------------|

e---------13-13/15-15/17-17/18-18/20-20----20b22r20b22r20b22r20b22r20------|
H--------------------------------------------------------------------------|
G--15--17------------------------------------------------------------------|
D--------------------------------------------------------------------------|
A--------------------------------------------------------------------------|
E--------------------------------------------------------------------------|






Like us on Facebook