Where Are We Runnin Bass Tab - Lenny Kravitz






Intro

G-------------------}
D----00-------------}X3
A-333---------------}
E------3-33333333---}


"Fast lane high speeds"
G----------------------------------------------------------------}
D----00-------------------------------------------------1~----3~-}x1
A-333--------------------11----1-1----------11----1-1------------}
E------33333333-33--333----1~-1-1-1-33--333---1~-1-1-1-----------}


G-------------------}
D----00-------------}X3
A-333---------------}
E------3-33333333---}


"In Style"
G----------------------------------------------------------------}
D----00-------------------------------------------------1~----3~-}x1
A-333--------------------11----1-1----------11----1-1------------}
E------33333333-33--333----1~-1-1-1-33--333---1~-1-1-1-----------}



G-------------------}
D----00-------------}X4
A-333---------------}
E------3-33333333---}

drum solo dont play




G-------------------}
D----00-------------}X15
A-333---------------}
E------3-33333333---}


To all the poeple who havent made a tab yet This is really hard to do so thank some of us once in awhile

Ricky Roy
             Bass Tabist







Like us on Facebook