3 Quarts Drunk Bass Tab - Less Than Jake






3 QUARTS DRUNK
LESS THAN JAKE
PEZCORE
7:39 PM 3/3/97

---------------------------------3-5--
-0-33-33-3--3-55-5-0-3-5------
----------------------------------------
----------------------------------------

-----------------------35-------------------------------------530----
-0-33-33-3--3-55-55----5-0-3-5---33-33-3-3-55-55-5-0
-------------------------------------------------------------------------
--------------------------------------------------------------------------
THIS WAS TAKEN OFF THE LESS THAN JAKE
WEB PAGE....I HAVE NO IDEA WHO WROTE IT

ĂŽnscrie-te la newsletter


Like us on Facebook