Bigger Picture Tab - Less Than Jake






Less Than Jake
Bigger Picture
Tabbed by dt
/: Slide and let the string fade out.

Intro/Verse
----------------------------------------------------
----------------------------------------------------
--8--10---------------------------------------------
--8--10-10-8--6-------------------------------------
--6--8--10-8--6-------------------------------------
--------8--6--4-------------------------------------

Chorus
----------------------------------------------------
----------------------------------------------------
--8-----6-------------------------------------------
--8--8--6--6----------------------------------------
--6--8--4--6----------------------------------------
-----6-----4----------------------------------------

Verse 2
----------------------------------------------------
----------------------------------------------------
--8/10--6----8/10-----------------------------------
--8/10--6----8/10--10-8--6--------------------------
--6/8---4----6/8---10-8--6--------------------------
-------------------8--6--4--------------------------

ĂŽnscrie-te la newsletter


Like us on Facebook