Let Her Go (ver2) Bass Tab - Less Than Jake






Intro:
g|-----------------------------------------|
d|-----------------------------------------|
a|-------------------------------66-56865--|  x2
e|-66-66-666-88-88-888-44-44-444-----------|

Verse:
g|------------------------------------|
d|------------------66-66865----------|
a|---58--58--58--58----------66-56865-| x4
e|-66---6---6---6---------------------|

Pre-Chorus:
g|-------------------------------------|
d|-------------------------------------|
a|----------8888-65-------556-8888-65--|
e|-66-66666--------8-6666------------8-|

Chorus:
g|-----------------------------|
d|-----------------------------|
a|---------------566-666666666-| X2(accent last note second time)
e|-66-66666666668--------------|

Bridge:(you gotta let hergo, gotta let her go part)
same as intro

Bridge:(na na part)
g|-------------------------------------------|
d|-------------------------------------------|
a|-----------------------66-66-6666-88-56865-|
e|-66-66-6666-88-88-8888---------------------|

Outro:
same as verse, then play the chorus

and end on:
g|----|
d|----|
a|----|
e|-66-|

ĂŽnscrie-te la newsletter


Like us on Facebook