Were All Dudes Tab - Less Than Jake






WERE ALL DUDES - Less Than Jake


Tabbed by:Grandmaster B

Intro
e|--5--------5--------7--------5---------------------------------------------|
B|--5--------7--------9--------7---------------------------------------------|
G|--6--------7--------9--------7---------------------------------------------|
D|--7--------7--------9--------7---------------------------------------------|
A|--7--------5--------7--------5---------------------------------------------|
E|--5--------5--------7--------5---------------------------------------------|

Verse
e|--5--------5--------7------------------------------------------------------|
B|--5--------7--------9------------------------------------------------------|
G|--6--------7--------9------------------------------------------------------|
D|--7--------7--------9------------------------------------------------------|
A|--7--------5--------7------------------------------------------------------|
E|--5--------5--------7------------------------------------------------------|

Chorus
e|---------------------------------------------------------------------------|
B|---------------------------------------------------------------------------|
G|-----------7--------9--------7---------------------------------------------|
D|--7--------7--------9--------7---------------------------------------------|
A|--7--------5--------7--------5---------------------------------------------|
E|--5------------------------------------------------------------------------|

Intro
Verse
Chorus
verse
Chorus
Intro
Verse
Chorus
intro
Chorus

hippie_rasta_mon@yahoo.com

ĂŽnscrie-te la newsletter


Like us on Facebook