Slippin And Slidin Bass Tab - Little Richard






G:----------------------------------------------------------------------|
D:---------5----------------5-------------------------------------------|
A:-3---7------------3----7----------------------------------------------|
E:----------------------------------------------------------------------|


G:-----------5--------------5---------------------------------------------|
D:--3---7-----------3---7-------------------------------------------------|
A:------------------------------------------------------------------------|
E:------------------------------------------------------------------------|

G:------------7---------------------5-------------------------------------|
D:--5----9--------------3----7--------------------------------------------|
A:------------------------------------------------------------------------|
E:------------------------------------------------------------------------|






Like us on Facebook