One False Move Bass Tab - Lizzy Borden






Here is the Bass transcrition to "One False Move" by Lizzy Borden.
Mainly this was done just so I could see some Lizzy Tab out there. (If
anyone wants to see more let me know.)

The bass on this song was performed by one of the following Joey Vera
(ex-Armored Saint, current Fates Warning), Mychal Davis (long time Lizzy
bassist), or Brian Perry, as all three are credited on the cd (If anyone
knows for fact e-mail me and let me know).

Performance notes:
1. "One False Move" is a dark song with light instrumentation (bass, two
primary guitars, and vocals,) with the bass being the primary instrument.
2. All notes are eight notes  (I recommend tracking down the cd and
listening for the feel).
3. The A pedal note (5th fret-E string) could also be played as open A.
4. All text refers to line below it.
5. Most importantly: Enjoy


Transcribed by Joe Watts (asjww8@UAA.ALASKA.EDU). (Question, comments?)

(I am 99.9% sure of the accuracy of this):

One False Move
     by
 Lizzy Borden
   (Borden)
    from
       Master of Disguise

Slowly
    Intro
G|  ----------------|----------------||---------------|----------------|
D|* ----------------|---------------*||---------------|----------------|
A|* 7-----7-----7---|8-----8-----8--*||7------7----7--|8-----8-----8---|
E|  --5-5---5-5---5-|--5-5---5-5---5-||---5-5--5-5--5-|--5-5---5-5---5-|

G|----------------|---------------|----------------|----------------|
D|----------------|---------------|----------------|----------------|
A|7-----7-----7---|8----8-----8-7-|5-----5-----5---|3-----3-2-----2-|
E|--5-5---5-5---5-|--5-5--5-5-----|--3-3---3-3---3-|--1-1-----0-0---|

                                     1st, 2nd verses
G|----------------|----------------||------------------|----------------|
D|----------------|----------------||*-----------------|----------------|
A|7-----7-----7---|7-----7-----7---||*-7-----7-----7---|8-----8-----8---|
E|--5-5---5-5---5-|--5-5---5-5---5-||----5-5---5-5---5-|--5-5---5-5---5-|


G|----------------|--------------|----------------|---------------|
D|----------------|--------------|----------------|---------------|
A|7-----7-----7---|8-----8---8-7-|5-----5-----5---|3-----3-2----2-|
E|--5-5---5-5---5-|--5-5---5-----|--3-3---3-3---3-|--1-1-----0-0--|

                                     1st Chorus
G|----------------|----------------||----------------|----------------|
D|----------------|---------------*||----------------|------------2-0-|
A|7-----7-----7---|7-----7-----7--*||3-----3-----3---|2-----2---------|
E|--5-5---5-5---5-|--5-5---5-5---5-||--1-1---1-1---1-|--0-0---0-0-----|

G|----------------|----------------|----------------|----------------|
D|----------------|------------2-0-|----------------|----------------|
A|3-----3-----3---|2-----2---------|3-----3-----3---|2-----2-----2---|
E|--1-1---1-1---1-|--0-0---0-0-----|--1-1---1-1---1-|--0-0---0-0---0-|

                                     3rd Verse
G|----------------|----------------||----------------|----------------|
D|----------------|----------------||----------------|----------------|
A|7-----7-----7---|7-----7-----7---||7-----7-----7---|8-----8-----8---|
E|--5-5---5-5---5-|--5-5---5-5---5-||--5-5---5-5---5-|--5-5---5-5---5-|

G|----------------|----------------|----------------|----------------|
D|----------------|----------------|----------------|----------------|
A|7-----7-----7---|8-----8-----8-7-|5-----5---5-5---|3-----3-2-----2-|
E|--5-5---5-5---5-|--5-5---5-5-----|--3-3---3-----3-|--1-1-----0-0---|

     2nd Chorus
G|----------------|----------------||----------------|----------------|
D|----------------|----------------||----------------|----------------|
A|7-----7-----7---|7-----7-----7---||3-----3-----3---|2-----2-----7-5-| 
E|--5-5---5-5---5-|--5-5---5-5---5-||--1-1---1-1---1-|--0-0---0-0-----|

G|----------------|----------------|----------------|----------------|
D|----------------|----------------|----------------|----------------|
A|5-----5-----5---|3-----3-----3---|3-----3-----3---|2-----2-----2---|
E|--3-3---3-3---3-|--1-1---1-1---1-|--1-1---1-1---1-|--0-0---0-0---0-|

    Outro
G|----------------||----------------|----------------|----------------|
D|----------------||----------------|----------------|----------------|
A|7-----7-----7---||3-----3-----3---|2-----2-----2---|5-----5-----5---|
E|--5-5---5-5---5-||--1-1---1-1---1-|--0-0---0-0---0-|--3-3---3-3---3-|

G|----------------|----------------|----------------|----------------|
D|----------------|----------------|----------------|----------------|
A|3-----3-----3---|3-----3-----3---|2-----2-----2---|7-----7-----7---|
E|--1-1---1-1---1-|--1-1---1-1---1-|--0-0---0-0---0-|--5-5---5-5---5-|

                 Fine
G|---------------|
D|---------------|
A|7--(7)---------|
E|5--(5)---------|


Alternate Version for playing the verses:

G|----------------|----------------|----------------|----------------|---
D|2-----2-----2---|3-----3-----3---|2-----2-----2---|3-----3-----3-2-|---
A|--0-0---0-0---0-|--0-0---0-0---0-|--0-0---0-0---0-|--0-0---0-0-----|---etc..
E|----------------|----------------|----------------|----------------|---


As with all things in life go for what works best for you.....
BASS FOREVER!!!!!!








Like us on Facebook