Blood Red Sandman Tab - Lordi






   intro:
e--------------------------------------------------------|
B--------------------------------------------------------|
G--------------------------------------------------------|
D--7-7-5-7-7-5-7-7-5-7-5---------------------------------|
A--7-7-5-7-7-5-7-7-5-7-5--3times-------------------------|
E--7-7-5-7-7-5-7-7-5-7-5---------------------------------|


verse:

e-----------------------------------------|
B-----------------------------------------|
G-----------------------------------------|
D--10-9-9-7-7-5---------------------------|
A--10-9-9-7-7-5---------------------------|
E--8--7-7-5-5-3---------------------------|


bridge is restbut heres lyrics:can you hear how the children weep
the chills of fear like a sawblade cutting deep.


chorus:

"once again there is pain I bring flames I bring cold...
e------------------------------------------------------------|
B------------------------------------------------------------|
G------------------------------------------------------------|
D--7-7---------5-----------7-7--------7-7--5--8--------------|
A--7-7--7TIMES-5-----------7-7-7times-7-7--5--8--------------|
E--5-5---------3-----------5-5--------5-5--3--6--------------|

then back yo intro riff

e--------------------------------------------|
B--------------------------------------------|
G--------------------------------------------|
D-10-9-9-7-7-5--7-4-7-4----------------------|
A-10-9-9-7-7-5--7-4-7-4----------------------|
E-8--7-7-5-5-3--5-2-5-2----------------------|

then back to bridge and chorus then you are here...


"scream all you want but you wont wake up when you scream..."
e---------------------------------------------------------|
B---------------------------------------------------------|
G---------------------------------------------------------|
D--7--10-9-7-5-3-4-5--7-6-4-3--7-6-4-3-2-3----------------|
A--7--10-9-7-5-3-4-5--7-6-4-3--7-6-4-3-2-3----------------|
E--5--8--7-5-3-1-2-3--7-6-4-3--7-6-4-3-0-1----------------|

then play bridge and chorus and intro riff but end intro riff whit this...

e--------------------------------------------------------------------------|
B--------------------------------------------------------------------------|
G--------------------------------------------------------------------------|
D--5-8-5-8-5-5-5---8-------------------------------------------------------|
A--5-8-5-8-5-5-5---8-------------------------------------------------------|
E--5-8-5-8-5-5-5---8-------------------------------------------------------|


  TABBER IS 12 YEARS OLD ENJOY!!!






Like us on Facebook