Hard Rock Hallelujah (ver2) Tab - Lordi






Hard Rock Hallelujah

The Arockalypse

Lordi

Tabbed by Stephan Peters

Use dropped D Tuning and have fun, it's pretty easy! ;)

/= slide up
= slide down
x= mute note
h= hammer on
P.M = Palm Mute
b = bend string up
r = release string


Intro
     Repeat 2 times
E|--------------------------------------------------|
B|--------------------------------------------------|
G|--------------------------------------------------|
D|-5-5--8-8--10-10--1--3-8--5-5--8-8--1-1--11--10-8-|
A|-5-5--8-8--10-10--1--3-8--5-5--8-8--1-1--11--10-8-|
D|-5-5--8-8--10-10--1--3-8--5-5--8-8--1-1--11--10-8-|


Bridge 1
                                                                              |2nd-Part
E|---------------------------------------------------------------------|
B|---------------------------------------------------------------------|
G|---------------------------------------------------------------------|
D|-8-----8-7-----7-8-7---10---7---8-8-----8-7-----7-8-7--1--3--7-8-----|
A|-8-x-x-8-7-x-x-7-8-7-x-10-x-7-x-8-8-x-x-8-7-x-x-7-8-7--1--3--7-8-x-x-|
D|---------------------------------------------------------------------|

E|----------------------------------------------------------|
B|----------------------------------------------------------|
G|----------------------------------------------------------|
D|-8-7-----7-8-7---10---7---8-8-----8-7-----7-8-7--10--8--5-|
A|-8-7-x-x-7-8-7-x-10-x-7-x-8-8-x-x-8-7-x-x-7-8-7--10--8--5-|
D|-------------------------------------------------10--8--5-|

The saints are

E|--------------------------------------------------------------------|
B|--------------------------------------------------------------------|
G|--------------------------------------------------------------------|
D|5----5-5----3-3----10-10---1--3--5-5----5-5----3-3----10-10---1--3--|
A|5----5-5----3-3----10-10---1--3--5-5----5-5----3-3----10-10---1--3--|
D|5----5-5----3-3----10-10---1--3--5-5----5-5----3-3----10-10---1--3--|

Bridge 2
  All we need is...

E|---------------------------------------------------------------|
B|---------------------------------------------------------------|
G|---------------------------------------------------------------|
D|-1-1--1----------5-5-----------3-3-------------1-1-------------|
A|-1-1-----1--0-1--5-5--5--1-----3-3--0--0-1-3---1-1--1--1-0-----|
D|-1-1-------------5-5--------7--3-3-----------3-1-1---------5-3-|
  |P.M|           |P.M|      A.H|P.M|           |P.M|


E|--------------------------------------------------------|
B|--------------------------------------------------------|
G|--------------------------------------------------------|
D|-1-1--1----------5-5-----------3-3-------------0--(1)-0-|
A|-1-1-----1--0-1--5-5--5--1-----3-3--0--0-1-3---0--(1)-0-|
D|-1-1-------------5-5--------7--3-3-----------3-0--(1)-0-|
   |P.M|              |P.M|        A.H |P.M|


Chorus repeat 2 times
   After Chorus go back to Bridge 1 - 2nd Part| After Part 2 go to The true believers
E|---------------------------------------------|
B|---------------------------------------------|
G|---------------------------------------------|
D|-5-5-5--3-3-3--1-1-1/8--8-8-8--10--6--1--3---|(0)
A|-5-5-5--3-3-3--1-1-1/8--8-8-8--10--6--1--3---|(0) 






Like us on Facebook