Kalmageddon Bass Tab - Lordi






www.lordi.org   a Finnish metal band, theyve been around since 2003.


Beginning Part
G|--2------------------------2----------------------------------------------|
D|--------------------------------------------------------------------------|
A|0---0h6-0h5-0h3-0h2/3----0----0h6--0h5--0h3-------------------------------|
E|--------------------------------------------------------------------------|

Next Part
G|--------------------------------------------------------------------------|
D|--------------------------------------------------------------------------|
A|0-0-3-5--00-6-5-0---0-0-3-5-----------------------------------------------| 
E|--------------------------------355535------------------------------------| 

then beginning on "you start to feel the cold...."
G|--2------------------------2----------------------------------------------|
D|--------------------------------------------------------------------------|
A|0---0h6-0h5-0h3-0h2/3----0----0h6--0h5--0h3-------------------------------|
E|--------------------------------------------------------------------------|


then, on the 'The age of ruin is upon us all' part
G|--------------------------------------------------------------------------|
D|--------------------------------------------------------------------------|
A|----------065323-------0000/666






Like us on Facebook