You Are A Boy Bass Tab - Lordi






* '}' = Quarter rest






  [Verse]  
  
    B C A B C A B
G|-----------------| 
D|-----------------| 
A|-----------------| 
E|--7-8-5-7-8-5-7--|


 




  [Verse: bass & drum 'solo' part of the verse]

    B               D  B             F B             F# B            A   B
G|--------------------------------------------------------------------------| 
D|--------------------------------------------------------------------------| 
A|-----------------------------------8---------------9----------------------| 
E|--7-7-7-7-7-7-7-7-10-7-7-7-7-7-7-7---7-7-7-7-7-7-7---7-7-7-7-7-7-7-5-/-7--|




  [Chorus]
  
   
    G                        F#               D                A
G|------------------------------------------------------------------------------| 
D|------------------------------------------------------------------------------| 
A|--10-10-10-10-10-10-10-10--9-9-9-9-9-9-9-9--5-5-5-5-5-5-5-5-------------------| 
E|-------------------------------------------------------------5-5-5-5-5-5-5-5--| 





  [Chorus cont.]

    G       F#      A       A
G|-------------------------------|
D|-------------------------------|
A|-------------------------------|
E|--3-3--}--2-2--}--5-5--}--5-5--|  










Like us on Facebook