A Town Called Hypocrisy Bass Tab - Lostprophets






A Town Called Hypocrisy

tabbed by:fret13

guys i know its awkward but i asure
you this is how they play it. play it with the song
a few times.
12-22-06=Ive also jsut updated it 
so that its easier to read.

tuning:dropped d

intro-00:05
|-------|
|-------|
|-------|
|-8-8-8-|

00:10 verse/pre-chorus
|-----------------|
|-----------------|
|---6-6-6---6-6-6-|
|-6-------6-------|

|------------------------------------------|
|------------------------------------------|  -
|------------------------------------------|    -
|-8-x-8-x-8-3-3--3--3--6-x-6-x-6-1-1--1--0-|      x4
                                                 /
|--------------------------------------------------|
|--------------------------------------------------|
|-------------------------------6-6-6---6-6-6------|
|-8-x-8-x-8-3-3--3--3-6-x-6-x-6-------6------------|

chorus
|-------------------------------------------------------------------|x4
|-------------------------------------------------------------------|
|-------------------------------------------------------------------|
|-8-8-8-8-8-8-8-8-6-6-6-6-6-6-6-6-3-3-3-3-3-3-3-3-6-6-6-6-6-6-6-6-6-|

verse
|------------------------------------------|
|------------------------------------------|  -
|------------------------------------------|    -
|-8-x-8-x-8-3-3--3--3--6-x-6-x-6-1-1--1--0-|      x4
                                /
|--------------------------------------------------|
|--------------------------------------------------|
|-------------------------------6-6-6---6-6-6------|
|-8-x-8-x-8-3-3--3--3-6-x-6-x-6-------6------------|

chorus
|-------------------------------------------------------------------|x4
|-------------------------------------------------------------------|
|-------------------------------------------------------------------|
|-8-8-8-8-8-8-8-8-6-6-6-6-6-6-6-6-3-3-3-3-3-3-3-3-6-6-6-6-6-6-6-6-6-|

pre-bridge
|-------------------------------------------------------------------|
|-------------------------------------------------------------------|
|-------------------------------------------------------------------|
|-8-8-8-8-8-8-8-8-6-6-6-6-6-6-6-6-3-3-3-3-3-3-3-3-6-6-6-6-6-6-6-6-6-|

bridge
|------------------------------------------|
|------------------------------------------|  -
|------------------------------------------|    -
|-8-x-8-x-8-3-3--3--3--6-x-6-x-6-1-1--1--0-|      x2
                                                 /
|--------------------------------------------------|
|--------------------------------------------------|
|-------------------------------6-6-6---6-6-6------|
|-8-x-8-x-8-3-3--3--3-6-x-6-x-6-------6------------|

chorus
|-------------------------------------------------------------------|x4
|-------------------------------------------------------------------|
|-------------------------------------------------------------------|
|-8-8-8-8-8-8-8-8-6-6-6-6-6-6-6-6-3-3-3-3-3-3-3-3-6-6-6-6-6-6-6-6-6-|

end on
|---|
|---|
|---|
|-8-|






Like us on Facebook