A Town Called Hypocrisy Intro Tab - Lostprophets






hi. i couldnt find any tab on the internet for this song so i decided
to tab it myslef. sounds 100% good.
will be working on the whole song.
enjoy =)
drop D tuning (DADGBe)
s=slide


e|-----------------------|
B|-----------------------|
G|------6-6-6------------|
D|------------8-----8-8-8|
A|-------------6-8-8-----|
D|6-8-8------------------|

e|-------------------------|
B|-------------------------|
G|------6-6-6-------s8-6--6|
D|------------8----------8-|
A|-------------6-8-8-------|
D|6-8-8--------------------|

well thats it. hope you like it






Like us on Facebook