Burn Burn Bass Tab - Lostprophets






Lost Prophets - Burn Burn
Album: Start Something
Submitted By: Stand Alone (projectwyze13@hotmail.com)

Tuning: Drop D (D,A,D,G)
/    - slide

Intro x2 - [Slide 1st time only]
|--------------------------------|--------------------------|
|--------------------------------|--------------------------|
|------0-0------3-3-----3---3/5--|--0-0------3-3------XX-X--|
|-7-------3-3------0-0---0------|------3-3------0-0--------|  

:REST:

Chorus x2 - ["Burn Burn the station.."] [Slide 1st time only]
|---------------------------------|--------------------------|
|---------------------------------|--------------------------|
|-------0-0------3-3-----3---3/5--|--0-0------3-3------XX-X--|
|-/7-------3-3------0-0---0------|------3-3------0-0--------|

Verse [Bass Only]
|----------------------------|
|----------------------------|  X8
|--0-0-0-------3-3-----------|
|--------3-3-3-----00000000--|

Chorus x2 - ["Burn Burn the station.."] [Slide 1st time only]
|---------------------------------|--------------------------|
|---------------------------------|--------------------------|
|-------0-0------3-3-----3---3/5--|--0-0------3-3------XX-X--|
|-/7-------3-3------0-0---0------|------3-3------0-0--------|

Bridge [Note: Not Exact Amount]
|-------------------------------------------------------------------------|
|-------------------------------------------------------------------------|
|-X-X-X-X-X-X-X-X-X-X-X-X-X-X-X-X-X-X-X-X-X-X-X-X-X-X-X-X-X-X-X-X-X-X-X-X-|
|-------------------------------------------------------------------------|

|------------------------------------------------------------------|
|------------------------------------------------------------------|
|-7-7-7-7-7-7-7-7-7-7-7-5-5-5-5-5-5-5-5-3-3-3-3-3-3-2-2-2-2-2-2-2--|
|------------------------------------------------------------------|

Fill:
|------------------|
|------------------|  
|-----------3------|
|--7--0--3-----0~--|

:REST:

Then:
|----------------------------|--------------------------|
|----------------------------|--------------------------| x6
|--0-0------3-3-----3---3/5--|--0-0------3-3------XX-X--|
|------3-3------0-0---0------|------3-3------0-0--------|

Outro:
|--------------------------------------------------------------------------|
|--------------------------------------------------------------------------|
|---7(x12)---5(x8)---3(x8)---2(x8)-----------------------------------------|
|--------------------------------------------------------------------------|

|------------------|
|------------------|  
|-----------3------|
|--7--0--3-----0~--|






Like us on Facebook