Everyday Combat (ver2) Tab - Lostprophets






Band: Lostprophet
Song: Everday Combat
Tabber: Paul O'Hara
Email: pauls_the_next_hendrix@hotmail.co.uk.


Tunning: Drop D (DADGBe)


Introduction:

|-------------------------------|
|-------------------------------|
|-------------------------------|  x8
|-------------------------------|
|-----2---2-4-2-------2-----2---|
|-4-4---4-------4-0-0---0-2---2-|


Verse: Guitar 1                                                        _
                                                                        |
|---------------------------------------------------------------------| |
|---------------------------------------------------------------------| |
|----11-11-11-11------11-11-11-11-----11-11-11-11------11-11-11-11----| |
|---------------------------------------------------------------------| |
|----9--9--9--9-------9--9--9--9------9--9--9--9-------9--9--9--9-----| |
|---------------------------------------------------------------------| |
                                                                        |
Verse Guitar 2                        both guitar parts played toghther |x6
                                                                        |
|---------------------------------------------------------------------| |
|---------------------------------------------------------------------| |
|---------------------------------------------------------------------| |
|--4--------------7----------------2----------------2-----------------| |
|--4--------------7----------------2----------------2-----------------| |
|--4--------------7----------------2----------------2-----------------| |
                                                                       _|

Pre Chorus: Guitar 1
                                                                       _
                                                                        |
|---------------------------------------------------------------------| |
|---------------------------------------------------------------------| |
|------11-----11-----11-----11------11-----11-----11-----11-----------| |
|---------------------------------------------------------------------| |
|------9------9------9------9-------9------9------9------9------------| |
|---------------------------------------------------------------------| |
                                                                        |
Verse Guitar 2                        both guitar parts played toghther |x2
                                                                        |
|---------------------------------------------------------------------| |
|---------------------------------------------------------------------| |
|---------------------------------------------------------------------| |
|--0-0-----0------0------0------2-2-----2------2------2---------------| |
|--0-0-----0------0------0------2-2-----2------2------2---------------| |
|--0-0-----0------0------0------2-2-----2------2------2---------------| |
                                                                       _|

Chorus:

|---------------------------------------------------------------------|
|-------3--------------------3----------------------------------------|
|-------2--------------------2----------------------------------------|  x4
|--4----0----2----7--6--4----0----2----7--6---------------------------|
|--4----0----2----7--6--4----0----2----7--6---------------------------|
|--4----0----2----7--6--4----0----2----7--6---------------------------|


Dont know the guitar solo yet. plz rate this song because this is the best song on their 
album Liberation Transmission.






Like us on Facebook