Last Train Home (ver4) Tab - Lostprophets






Song - Last Train Home
Artist - Lostprophets
Album - Start Something

Intro - (Played though Chorus No.2)

|-------------------------------| 
|-------------------------------|
|------16-----16-----16-----16--|
|----17-----17-----17-----17----|
|--15-----15-----15-----15------|
|-------------------------------|

|-------------------------------|
|-------------------------------|
|------16-----16-----16-----16--|
|----17-----17-----17-----17----|
|--14-----14-----14-----14------|
|-------------------------------|

|---------------------------|
|---------------------------|
|-----16----16----16----16--|
|---17----17----17----17----|
|--0-----0-----0-----0------|
|---------------------------|

|---------------------------|
|---------------------------|
|-----14----14----14----14--|
|---17----17----17----17----|
|--0-----0-----0-----0------|
|---------------------------|


Chorus No.1 - x2

"But There's Still Tomorrow..." / "Watching Past The Day.."

|-----------------------|
|-----------------------|
|--2x12-7x12------------|
|--2x12-7x12-7x12-2x12--|
|--2x12-5x12-7x12-2x12--|
|------------5x12-2x12--|

Chorus No.2 - x2

"But We Said....."

|--------------------------------------------| 
|--------------------------------------------| 
|--7x12-2x12-00-000-000-000-000-000-000-000--| 
|--7x12-2x12-00-000-000-000-000-000-000-000--| -- Palm Mute
|--5x12-2x12-00-000-000-000-000-000-000-000--| /
|--------------------------------------------|

Verse -

"To Every Broken Heart In Here..." / "I Wonder If Your Listening..."

|-------------------------------------------------------------------19x3--| 
|-------------------------------------------------------------------19x3--|
|--16x8-16x8-16x5-14x8-16x5-14x8-16x8-16x8-16x5-14x8-16x5-14x5-16x5-19x3--|
|--17x8-17x8-17x5-17x8-17x5-17x8-17x8-17x8-17x5-17x8-17x5-17x5-17x5-------| Continued...
|--15x8-14x8-0x5--0x8--15x5-0x8--15x8-14x8-0x5--0x8--15x5-0x5--15x5-------|
|-------------------------------------------------------------------------|

|--------19x3-----------19x3-----------19x3--------------------------------|
|--------19x3-----------19x3-----------19x3--------------------------------|
|---16x5-19x3-16x5-14x5-19x3-16x5-14x5-19x3-16x8-16x8-16x5-14x8-16x5-14x8--|
|---17x5------17x5-17x5------17x5-17x5------17x8-17x8-17x5-17x8-17x5-17x8--|
|---15x5------15x5-0x5-------15x5-0x5-------15x8-14x8-0x5--0x8--15x5-0x8---|
|--------------------------------------------------------------------------|

Bridge -

|-----------------------------------------------------------------------------------|
|-----------------------------------------------------------------------------------|
|-----------------------------------------------------------------------------------|
|--00-12-00-12-00-12-00-12-00-12-00-12-00-12-00-12-000-000-000-000-000-000-000-000--|
|--00-12-00-12-00-12-00-12-00-12-00-12-00-12-00-12-000-000-000-000-000-000-000-000--|
|--00-12-00-12-00-12-00-12-00-12-00-12-00-12-00-12-000-000-000-000-000-000-000-000--|

Outro :

|-----------------------------------------------------------------------|
|-----------------------------------------------------------------------|
|---------------16-----16-----16-----16-----16-----16-----16-----16-----|
|-------------17-----17-----17-----17-----17-----17-----17-----17-------|
|--15---15^-15-----15-----15-----15-----14-----14-----14-----14---------|
|-----------------------------------------------------------------------|

Order :

Intro

Chorus No.2

Verse

Chorus No.1

Chorus No.2

Verse

Chorus No.1

Chorus No.2

Bridge

Outro

Chorus No.2






Like us on Facebook