New Transmission Bass Tab - Lostprophets






The song was pretty easy.  Tune down to E flat because Stu is using a five string in 
song, at least I think so haha. 

tabbed by: Valerie
e-mail:iloled@yahoo.com

Tuning: E Flat

Intro & Verse (0:06)
G|-------------------------------------|
D|-----333----------------333----------|
A|---------111----------------111------|  x13
E|-22------------000--222----------000-|

Chorus (0:45)
G|------------------------------------------|-----------------------------|
D|------------------------------------------|-----------------------------|
A|-----------------------------44444--66666-|----------------44444--66666-|
E|--222222--55555--0000000000---------------|--22222--55555---------------|

Verse (1:08)
G|-------------------------------------|
D|-----333----------------333----------|
A|---------111----------------111------|  x10
E|-22------------000--222----------000-|

Repeat Chorus (1:37)

Breakdown (2:02)
G|-----------------------------------------------------------|
D|-----------------------------------------------------------|
A|--44-4-4-4-44-4-4-4--------------------4-4-4-4-44-4-4-4----|
E|---------------------22-2-2-2-22-2-2-2---------------------|

|----------------------------------|
|----------------------------------|
|---------------------444444444444-|
|--22-2-2-2-22-2-2-----------------|

Repeat Intro & Verse






Like us on Facebook