New Transmission Tab - Lostprophets






Intro
d|-------------------------------------|
a|-------------------------------------|
f|-----777-------------777-555---------|
c|--55-555-555-333-555-555-555-333-----|
g|--55-----333-333-555-----333-333-----|
c|--55---------333-555---------333-----|

The first part of the verse is just a little bit of bass

Verse pt.2
d|-------------------------------------------|
a|-------------------------------------------|
f|----------5555---------------5555----------|
c|-55555555-5555-3333-55555555-5555-3333-----|
g|-55555555-3333-3333-55555555-3333-3333-----|
c|-55555555------3333-55555555------3333-----|
   .......  .... .... ........ .... ....
Pre Chorus
d|-------------------------------------|
a|-------------------------------------|
f|-----777-------------777-555---------|
c|--55-555-555-333-555-555-555-333-----|
g|--55-----333-333-555-----333-333-----|
c|--55---------333-555---------333-----|

Chorus
d|------------------------------------------|
a|------------------------------------------|
f|------------------------------------------|
c|-55555555-88888888-33333333-33333333------| x2
g|-55555555-88888888-33333333-33333333------|
c|-55555555-88888888-33333333-33333333------|

Chorus Pt.2
d|------------------------------------------|
a|------------------------------------------|
f|------------------------------------------|
c|-55555555-88888888-11111111-33333333------| x2
g|-55555555-88888888-11111111-33333333------|
c|-55555555-88888888-11111111-33333333------|

Repeat Intro

Verse
d|---------------------------------------|
a|---------------------------------------|
f|-----12-12-1010-77----12-12-1010-5/7---|
c|--55---------------55------------------| x2
g|--55-10-10--8-8-55-55-10-10--8-8-3/5---|
c|--55---------------55------------------|

Repeat Verse pt.2
Repeat chorus pts 1&2

Bridge
d|---------------------------------------------------------|
a|---------------------------------------------------------|
f|---------------------------------------------------------|
c|-5----5----1---11-1-1-11-1-5-55-5-5-55-5-1-11-1-1-11-1---|
g|-5----5----1---11-1-1-11-1-5-55-5-5-55-5-1-11-1-1-11-1---|
c|-5----5----1---11-1-1-11-1-5-55-5-5-55-5-1-11-1-1-11-1---|
                 ..     ..     ..     ..     ..     ..
Repeat that a few times
Repeat Pre Chorus
Repeat Chorus pts 1&2
Repeat Intro

that's the basic gist of it






Like us on Facebook