Rooftops (ver2) Tab - Lostprophets






Band * LostProphets

Song * Rooftops

Album * Liberation Transmission

Tabbed by Path0gen

Tuning - Dropped C (Drop D then down a whole step) - C-G-C-F-A-D

This is building off Killswitch_Mikes' initial tablature of the song.

Also this is my first tab, regarless i'm positive this is the way the chrous is  played! 
tried to match the rhythm of the chorus with the vocals, just listen to the song to get 
perfect! Using the quality of text documents I can't fit the words in with the beat pefectly. Enjoy.


- Distorted -


D||---------------------------------------------------------||
A||---------------------------------------------------------||
F||---------------------------------------------------------||
C||-0-0-0-0-0--0--0-0-0-0--0-2-2-2-2-2-2-4-4-4-4-4-4-6-6-6--||
G||-0-0-0-0-0--0--0-0-0-0--0-2-2-2-2-2-2-4-4-4-4-4-4-6-6-6--||
C||-0-0-0-0-0--0--0-0-0-0--0-2-2-2-2-2-2-4-4-4-4-4-4-6-6-6--||


    Standing on the rooftops,
                  Everybody scream your.
                             Heart----------------------------|
                                         Out------------------|


D||---------------------------------------------------------||
A||---------------------------------------------------------||
F||---------------------------------------------------------||
C||-0-0-0-0-0--0--0-0-0-0--0-2-2-2-2-2-2-4-4-4-4-4-4-6-6-6--||
G||-0-0-0-0-0--0--0-0-0-0--0-2-2-2-2-2-2-4-4-4-4-4-4-6-6-6--||
C||-0-0-0-0-0--0--0-0-0-0--0-2-2-2-2-2-2-4-4-4-4-4-4-6-6-6--||


    Standing on the rooftops,
                  Everybody scream your.
                             Heart----------------------------|
                                         Out------------------|


D||---------------------------------------------------------||
A||---------------------------------------------------------||
F||---------------------------------------------------------||
C||-0-0-0-0-0--0--0-0-0-0--0-2-2-2-2-2-2-4-4-4-4-4-4-6-6-6--||
G||-0-0-0-0-0--0--0-0-0-0--0-2-2-2-2-2-2-4-4-4-4-4-4-6-6-6--||
C||-0-0-0-0-0--0--0-0-0-0--0-2-2-2-2-2-2-4-4-4-4-4-4-6-6-6--||


   Standing on the rooftops,
                  Everybody scream your.
                             Heart----------------------------|
                                         Out------------------|


D||---------------------------------------------------------||
A||---------------------------------------------------------||
F||---------------------------------------------------------||
C||-0-0-0-0-0--0--0-0-0-0--0-2-2-2-2-2-2-4-4-4-4-4-4-6-6-6--||
G||-0-0-0-0-0--0--0-0-0-0--0-2-2-2-2-2-2-4-4-4-4-4-4-6-6-6--||
C||-0-0-0-0-0--0--0-0-0-0--0-2-2-2-2-2-2-4-4-4-4-4-4-6-6-6--||


    This is all we got now,
                  Everybody scream your.
                             Heart----------------------------|
                                         Out------------------|






Like us on Facebook