Rooftops (ver8) Tab - Lostprophets






This song is in a funny tuning it is

intro:    w/c tone

d --------------------------------------------------------------------------|
a ---10---10---10---10---10---10---10---10---10---10---10---10---10---10----|
f --------------------------------------------------------------------------|
c ----7----7----7----7----7----7----7----7----7----7----7----7----7----7----|
g --------------------------------------------------------------------------|
c --------------------------------------------------------------------------|

d --------------------------------------------------------------------------|
a ---10---10---10---10---10---10---10---10---10---10---10---10---10---10----|
f --------------------------------------------------------------------------|
c ----7----7----7----7----7----7----7----7----7----7----7----7----7----7----|
g ----9----9----9----9----9----9----9----9----9----9----9----9----9----9----|
c --------------------------------------------------------------------------|

d --------------------------------------------------------------------------|
a ---10---10---10---10---10---10---10---10---10---10---10---10---10---10----|
f ----9----9----9----9----9----9----9----9----9----9----9----9----9----9----|
c ----7----7----7----7----7----7----7----7----7----7----7----7----7----7----|
g ----9----9----9----9----9----9----9----9----9----9----9----9----9----9----|
c --------------------------------------------------------------------------|

d --------------------------------------------------------------------------|
a ---10---10---10---10---10---10---10---10---10---10---10---10---10---10----|
f ----9----9----9----9----9----9----9----9----9----9----9----9----9----9----|
c ----7----7----7----7----7----7----7----7----7----7----7----7----7----7----|
g ----9----9----9----9----9----9----9----9----9----9----9----9----9----9----|
c --------------------------------------------------------------------------|


d --------------------------------------------------------------------------|
a ---10---10---10---10---10---10---10---10---10---10---10---10---10---10----|
f ----9----9----9----9----9----9----9----9----9----9----9----9----9----9----|
c ----7----7----7----7----7----7----7----7----7----7----7----7----7----7----|
g ----7----7----7----7----7----7----7----7----7----7----7----7----7----7----|
c --------------------------------------------------------------------------|

d --------------------------------------------------------------------------|
a ---10---10---10---10---10---10---10---10---10---10---10---10---10---10----|
f ----9----9----9----9----9----9----9----9----9----9----9----9----9----9----|
c ----7----7----7----7----7----7----7----7----7----7----7----7----7----7----|
g ----9----9----9----9----9----9----9----9----9----9----9----9----9----9----|
c --------------------------------------------------------------------------|


d --------------------------------------------------------------------------|
a ---10---10---10---10---10---10---10---10---10---10---10---10---10---10----|
f ----9----9----9----9----9----9----9----9----9----9----9----9----9----9----|
c ----7----7----7----7----7----7----7----7----7----7----7----7----7----7----|
g ----9----9----9----9----9----9----9----9----9----9----9----9----9----9----|
c --------------------------------------------------------------------------|


verse:

d --------------------------------------------------------------------------|
a ---10---10---10---10---10---10---10---10---10---10---10---10---10---10----|
f ----9----9----9----9----9----9----9----9----9----9----9----9----9----9----|
c ----7----7----7----7----7----7----7----7----7----7----7----7----7----7----|
g ----9----9----9----9----9----9----9----9----9----9----9----9----9----9----|
c --------------------------------------------------------------------------|

d --------------------------------------------------------------------------|
a ---10---10---10---10---10---10---10---10---10---10---10---10---10---10----|
f ----9----9----9----9----9----9----9----9----9----9----9----9----9----9----|
c ----7----7----7----7----7----7----7----7----7----7----7----7----7----7----|
g ----7----7----7----7----7----7----7----7----7----7----7----7----7----7----|
c --------------------------------------------------------------------------|


d --------------------------------------------------------------------------|
a ---10---10---10---10---10---10---10---10---10---10---10---10---10---10----|
f ----9----9----9----9----9----9----9----9----9----9----9----9----9----9----|
c ----7----7----7----7----7----7----7----7----7----7----7----7----7----7----|
g ----9----9----9----9----9----9----9----9----9----9----9----9----9----9----|
c --------------------------------------------------------------------------|


d --------------------------------------------------------------------------|
a ---10---10---10---10---10---10---10---10---10---10---10---10---10---10----|
f ----9----9----9----9----9----9----9----9----9----9----9----9----9----9----|
c ----7----7----7----7----7----7----7----7----7----7----7----7----7----7----|
g ----9----9----9----9----9----9----9----9----9----9----9----9----9----9----|
c --------------------------------------------------------------------------|


d --------------------------------------------------------------------------|
a ---10---10---10---10---10---10---10---10---10---10---10---10---10---10----|
f ----9----9----9----9----9----9----9----9----9----9----9----9----9----9----|
c ----7----7----7----7----7----7----7----7----7----7----7----7----7----7----|
g ----9----9----9----9----9----9----9----9----9----9----9----9----9----9----|
c ----0----0----0----0----0----0----0----0----0----0----0----0----0----0----|

d --------------------------------------------------------------------------|
a ---10---10---10---10---10---10---10---10---10---10---10---10---10---10----|
f ----9----9----9----9----9----9----9----9----9----9----9----9----9----9----|
c ----7----7----7----7----7----7----7----7----7----7----7----7----7----7----|
g ----7----7----7----7----7----7----7----7----7----7----7----7----7----7----|
c --------------------------------------------------------------------------|


d --------------------------------------------------------------------------|
a ---10---10---10---10---10---10---10---10---10---10---10---10---10---10----|
f ----9----9----9----9----9----9----9----9----9----9----9----9----9----9----|
c ----7----7----7----7----7----7----7----7----7----7----7----7----7----7----|
g ----9----9----9----9----9----9----9----9----9----9----9----9----9----9----|
c --------------------------------------------------------------------------|


d --------------------------------------------------------------------------|
a ---10---10---10---10---10---10---10---10---10---10---10---10---10---10----|
f ----9----9----9----9----9----9----9----9----9----9----9----9----9----9----|
c ----7----7----7----7----7----7----7----7----7----7----7----7----7----7----|
g ----9----9----9----9----9----9----9----9----9----9----9----9----9----9----|
c --------------------------------------------------------------------------|


repeat verse
chorus


d --------------------------------------------------------------------------|
a --------------------------------------------------------------------------|
f --------------------------------------------------------------------------|
c 0-0-0-0-0-0-0-0-0-0-0-0-0-0-0-0-0-0-0-0-0-0-0-0-0-0-2-2-2-2-2-4-4-4-4-4-7-|
g 0-0-0-0-0-0-0-0-0-0-0-0-0-0-0-0-0-0-0-0-0-0-0-0-0-0-2-2-2-2-2-4-4-4-4-4-7-|
c 0-0-0-0-0-0-0-0-0-0-0-0-0-0-0-0-0-0-0-0-0-0-0-0-0-0-2-2-2-2-2-4-4-4-4-4-7-|


d --------------------------------------------------------------------------|
a --------------------------------------------------------------------------|
f --------------------------------------------------------------------------|
c 7-7-7---  ---0-0-0-0-0-0-0-0-0-0-0-0-0-0-0-0-0-2-2-2-2-4-4-4-4-2-2-2-2----|
g 7-7-7---  ---0-0-0-0-0-0-0-0-0-0-0-0-0-0-0-0-0-2-2-2-2-4-4-4-4-2-2-2-2----|
c 7-7-7---  ---0-0-0-0-0-0-0-0-0-0-0-0-0-0-0-0-0-2-2-2-2-4-4-4-4-2-2-2-2----|

solo

  solo

Guitar
|------------------------------------------------------|
|------------------------------------------------------|
|-----12-12-12-12-12-12-12-12-11-11-11-11-11-11-11-11--|
|-9/---------------------------------------------------|
|------------------------------------------------------|
|------------------------------------------------------|

|------------------------------------------------------|
|------------------------------------------------------|
|------------------------------------------------------|
|-12-12-12-12-12-12-12-12-12-12-12-12------------------|
|------------------------------------------------------|
|------------------------------------------------------|

|------------------------------------------------------|
|------------------------------------------------------|
|-----9-9-9-9-9-9-9-9-9-9-9-9-11-11-11-11--------------|
|-7/9--------------------------------------------------|
|------------------------------------------------------|
|------------------------------------------------------|

|------------------------------------------------------|
|------------------------------------------------------|
|------------------------------------------------------|
|------------------------------------------------------|
|-12-12-12-12-12-12-12-12-12-12-12-12-12---------------|
|------------------------------------------------------|

|------------------------------------------------------|
|------------------------------------------------------|
|-----12-12-12-12-12-12-12-12-14-14-14-14-14-14-14-14--|
|-7/9--------------------------------------------------|
|------------------------------------------------------|
|------------------------------------------------------|

|------------------------------------------------------|
|------------------------------------------------------|
|-11-11-11-9-9-9---------------------------------------|
|----------------12-12-12-12-12-12-12-12-12-12---------|
|------------------------------------------------------|
|------------------------------------------------------|
|------------------------------------------------------|
|------------------------------------------------------|
|-----9-9-9-9-9-9-9-9-9-9-9-9-9-9-9-9------------------|
|-7/9----------------------------------2-2-2----2-2-2--|
|--------------------------------------2-2-2----2-2-2--|
|--------------------------------------0-0-0----0-0-0--|


bridge

|-------------------------------------------------------|
|-------------------------------------------------------|
|-5-5-5--5-5-5--5-5-5--5-5-5--7-7-7--7-7-7--7-7-7--7-7-7|
|-5-5-5--5-5-5--5-5-5--5-5-5--7-7-7--7-7-7--7-7-7--7-7-7|
|-3-3-3--3-3-3--3-3-3--3-3-3--5-5-5--5-5-5--5-5-5--5-5-5|
|-------------------------------------------------------|

|--------------------------------------------------------------------|
|--------------------------------------------------------------------|
|-9-9-9--9-9-9--9-9-9--9-9-9--12-12-12--12-12-12--12-12-12--12-12-12-|
|-9-9-9--9-9-9--9-9-9--9-9-9--12-12-12--12-12-12--12-12-12--12-12-12-|
|-7-7-7--7-7-7--7-7-7--7-7-7--10-10-10--10-10-10--10-10-10--10-10-10-|
|--------------------------------------------------------------------|

|-------------------------------------------------------|
|-------------------------------------------------------|
|-5-5-5--5-5-5--5-5-5--5-5-5--7-7-7--7-7-7--7-7-7--7-7-7|
|-5-5-5--5-5-5--5-5-5--5-5-5--7-7-7--7-7-7--7-7-7--7-7-7|
|-3-3-3--3-3-3--3-3-3--3-3-3--5-5-5--5-5-5--5-5-5--5-5-5|
|-------------------------------------------------------|

|--------------------------------------------------------------------|
|--------------------------------------------------------------------|
|-9-9-9--9-9-9--9-9-9--9-9-9--12-12-12--12-12-12--12-12-12--12-12-12-|
|-9-9-9--9-9-9--9-9-9--9-9-9--12-12-12--12-12-12--12-12-12--12-12-12-|
|-7-7-7--7-7-7--7-7-7--7-7-7--10-10-10--10-10-10--10-10-10--10-10-10-|
|--------------------------------------------------------------------|

|------------------------------------------------------|
|------------------------------------------------------|
|------------------------------------------------------|
|-10-10-10-10-10-10-10-10-10-10-10-10-10-10-10-10------|
|-10-10-10-10-10-10-10-10-10-10-10-10-10-10-10-10------|
|-8--8--8--8--8--8--8--8--8--8--8--8--8--8--8--8-------|

|------------------------------------------------------|
|------------------------------------------------------|
|------------------------------------------------------|
|-12-12-12-12-12-12-12-12-12-12-12-12-12-12-12-12------|
|-12-12-12-12-12-12-12-12-12-12-12-12-12-12-12-12------|
|-10-10-10-10-10-10-10-10-10-10-10-10-10-10-10-10------|

|------------------------------------------------------|
|------------------------------------------------------|
|-12-12-12-12-12-12-12-12-12-12-12-12-12-12-12-12------|
|-12-12-12-12-12-12-12-12-12-12-12-12-12-12-12-12------|
|-10-10-10-10-10-10-10-10-10-10-10-10-10-10-10-10------|
|-10-10-10-10-10-10-10-10-10-10-10-10-10-10-10-10------|

|------------------------------------------------------|
|------------------------------------------------------|
|------------------------------------------------------|
|-10-10-10-10-10-10-10-10-10-10-10-10-10-10-10-10------|
|-10-10-10-10-10-10-10-10-10-10-10-10-10-10-10-10------|
|-8--8--8--8--8--8--8--8--8--8--8--8--8--8--8--8-------|

|------------------------------------------------------|
|------------------------------------------------------|
|------------------------------------------------------|
|-12-12-12-12-12-12-12-12-12-12-12-12-12-12-12-12------|
|-12-12-12-12-12-12-12-12-12-12-12-12-12-12-12-12------|
|-10-10-10-10-10-10-10-10-10-10-10-10-10-10-10-10------|

|------------------------------------------------------|
|------------------------------------------------------|
|-12-12-12-12-12-12-12-12-12-12-12-12-12-12-12-12------|
|-12-12-12-12-12-12-12-12-12-12-12-12-12-12-12-12------|
|-10-10-10-10-10-10-10-10-10-10-10-10-10-10-10-10------|
|-10-10-10-10-10-10-10-10-10-10-10-10-10-10-10-10------|

|------------------------------------------------------|
|------------------------------------------------------|
|------------------------------------------------------|
|-10-10-10-10-10-10-10-10-10-10-10-10-10-10-10-10------|
|-10-10-10-10-10-10-10-10-10-10-10-10-10-10-10-10------|
|-8--8--8--8--8--8--8--8--8--8--8--8--8--8--8--8-------|

|------------------------------------------------------|
|------------------------------------------------------|
|------------------------------------------------------|
|-12-12-12-12-12-12-12-12-12-12-12-12-12-12-12-12------|
|-12-12-12-12-12-12-12-12-12-12-12-12-12-12-12-12------|
|-10-10-10-10-10-10-10-10-10-10-10-10-10-10-10-10------|

|------------------------------------------------------|
|------------------------------------------------------|
|-12-12-12-12-12-12-12-12-12-12-12-12-12-12-12-12------|
|-12-12-12-12-12-12-12-12-12-12-12-12-12-12-12-12------|
|-10-10-10-10-10-10-10-10-10-10-10-10-10-10-10-10------|
|-10-10-10-10-10-10-10-10-10-10-10-10-10-10-10-10------|

|------------------------------------------------------|
|------------------------------------------------------|
|------------------------------------------------------|
|-10-10-10-10-10-10-10-10-10-10-10-10-10-10-10-10------|
|-10-10-10-10-10-10-10-10-10-10-10-10-10-10-10-10------|
|-8--8--8--8--8--8--8--8--8--8--8--8--8--8--8--8-------|

|------------------------------------------------------|
|------------------------------------------------------|
|-7-7-7---9-9-9----------------------------------------|
|-7-7-7---9-9-9----------------------------------------|
|-5-5-5---7-7-7----------------------------------------|
|------------------------------------------------------|

play chorus then ur done yay if you have any problem add

mattyallen123@hotmail.co.uk






Like us on Facebook